Yazdır
Seslendiren: Halk Türküsü
Halk Türküsü
Gönderen:

Yemen Türküsü (Akor)

  Am         Dm         G          C          F+7 
E|----0---0-|----1---1-|----------|----0---0-|----0---0-|
B|----1---1-|----3---3-|----3---3-|----1---1-|----1---1-|
G|--2---2---|--2---2---|----4---4-|--0---0---|--2---2---|
D|----------|0---------|--5---5---|----------|3---------|
A|0---------|----------|----------|3---------|----------|
E|----------|----------|3---------|----------|----------|

  Dm         G          E          Am         B°
E|----1---1-|----------|----0---0-|----0---0-|----1---1-|
B|----3---3-|----3---3-|----0---0-|----1---1-|----3---3-|
G|--2---2---|----4---4-|--1---1---|--2---2---|--1---1---|
D|0---------|--5---5---|----------|----------|----------|
A|----------|----------|----------|0---------|2---------|
E|----------|3---------|0---------|----------|----------|

  Am         Dm         G          C          F+7        Dm         G
E|----0-0---|----0-----|----------|----------|----------|----------|----------|
B|--------3-|3-1-----3-|3---3-3-1-|1-0-3---0-|1---1-1-0-|0---1---0-|0---1-0---|
G|----------|----------|----------|----------|----------|--2-------|--------2-|

  E          Am         B°         Am         Dm         G          C
E|----------|----------|----------|----0-0---|----0-----|----------|----------|
B|----0101--|----------|----------|--------3-|3-1-----3-|3---3-3-1-|1-0-3---0-|
G|2-------2-|2---2-----|----------|----------|----------|----------|----------|

  F          Dm         G          E          Am         B°
E|----------|----------|----------|----------|----------|----------|
B|1-----0130|0---1---0-|0---1-0---|----0-1---|----------|----------|
G|----02----|--2-------|--------2-|2-------2-|2---2-----|----------|


Am            Dm   G            Dm
Havada  bulut yok,   bu ne dumandir,
     Am          Dm      G    Dm
Mahlede ölü yok,   bu ne sivandir,
     Am                Dm       G    Dm     Dm
Su Yemen elle --- ri      ne de yamandir,

Am   Dm   G         C    F+7
Ah o Yemendir, gülü çemendir,
      Dm   G         E    Am    B°
Giden gelmiyor, acep nedendir
Am  Dm    G         C    F+7
Burasi Mustur, yolu yokustur,
      Dm   G         E    Am    B°
Giden gelmiyor, acep ne istir

Am                Dm   G            Dm
Kislanin   önün - de     redif sesi var,
      Am             Dm     G    Dm
Bakin çantasin-da      acep nesi var,
         Am             Dm       G    Dm    Dm
Bir çift kunduray-la      bir de fesi var,

Am   Dm   G         C    F+7
Ah o Yemendir, gülü çemendir,
      Dm   G         E    Am    B°
Giden gelmiyor, acep nedendir
Am  Dm    G         C    F+7
Burasi Mustur, yolu yokustur,
      Dm   G         E    Am    B°
Giden gelmiyor, acep ne istir
Şarkının doğruluğunu nasıl değerlendiriyorsunuz?
63%
Daha önce 78 değerlendirme yapılmış


Bu sayfayı ziyaret edenler bu sayfalara da uğradı :