Yazdır
Seslendiren: Anonim
Anonim
Gönderen:

Kalbe Dolan O Ilk Bakıs (Akor)

 :Gm     Cm     /      Dm     Gm     Cm     Dm     Cm
E|------|----3-|6-5---|------|------|----8-|65----|------|
B|------|4-3---|----7-|------|------|4-----|--86--|------|
G|--0-3-|------|------|7-----|--0-3-|--5---|----87|5-----|
D|0-----|------|------|------|0-----|------|------|------|

  Cm     Bb     /      A      Dm      D7     Gm     /    :
E|31----|1-----|------|------|----- -|------|------|------|
B|--431-|-431--|431---|------|323-- 1|------|------|------|
G|------|----3-|---323|2-----|----23-|3-2---|0-----|------|
D|------|------|------|------|----- -|----4-|------|------|
                                  -3-
Gm            Dm    Cm   )
Kalbe dolan o ilk bakis  )
F     Cm   F     Dm      ) 2
Unutulmaz, unutulmaz,    )

              Cm Bb      )
Sevda ile ilk uyanis     )
            D    Gm      ) 2
Unutulmaz, unutulmaz     )

  (   Bb     /      D      /      C      /      Gm     /
  ( E|6-----|6-5---|------|------|8-----|8-6-56|------|------|
  ( B|------|----8-|7-----|------|------|------|8-----|---78-|
  ( G|------|------|------|------|------|------|------|-78---|
  ( 
  ( Gm       D      A      Dm   )
  ( Ilkbahar yaz mevsim mevsim  )
A ( F         Gm           Cm   )
  ( Birkaç mektup birkaç resim  )
  ( Dm        Cm   Bb           ) 2
  ( Yillar geçse o bir isim     )
  ( Dm               Gm         )
  ( Unutulmaz, unutulmaz        )

Gm             Dm   Cm   )
Sahil boyu bos yamaçlar  )
F      Cm   F       Dm   ) 2
Isim yazi - lan agaçlar  )

          Cm       Bb    )
Öpülen koklanan saçlar   )
            D    Gm      ) 2
Unutulmaz, unutulmaz     )

TEKRAR A

Gm              Dm  Cm   )
Kâh gülünür kâh aglanir  )
F         Cm   F    Dm   ) 2
Yollar gurbete baglanir  )

           Cm    Bb      )
Insan unuturum sanir     )
            D    Gm      ) 2
Unutulmaz, unutulmaz     )

TEKRAR A
Şarkının doğruluğunu nasıl değerlendiriyorsunuz?
33%
Daha önce 4 değerlendirme yapılmış


Bu sayfayı ziyaret edenler bu sayfalara da uğradı :