Yazdır
Seslendiren: Alpay , Teoman
Alpay
Gönderen:

Buruk Acı (Akor)

|:C                                         G
E|------|------|------|------|------|------|------|------|
B|------|------|------|------|----0-|1---1-|0-----|------|
G|0-----|0-----|0-----|------|0-2---|--2---|------|------|
D|--3-2-|--3-2-|------|------|------|------|------|------|

  F                           G             C           :|
E|------|------|------|------|------|------|------|------|
B|--0-1-|3-1-0-|------|------|3-3-1-|0-1---|------|------|
G|2-----|------|2-----|------|------|----2-|0-----|------|
D|------|------|------|------|------|------|------|------|

|:F                           G             C
E|------|------|------|------|------|------|------|------|
B|------|------|------|------|----0-|0-1---|------|------|
G|--2---|2-----|2-----|2-----|0-2---|----2-|0-----|------|
D|3-----|----3-|----3-|------|------|------|------|------|

                G             C                         :|
E|------|------|------|------|------|------|------|------|
B|3-1---|------|0-----|------|------|------|------|------|
G|----2-|0---0-|------|------|----0-|0-2---|------|------|
D|------|--3---|------|------|2-3---|----3-|2-----|------|


C                                      G
Gurbet içimde bir ok, hersey bana yabanci,
F                      G             C
Hayat öyle bir han ki, aci içinde hanci

F                    G                C
Sevmek korkulu rüya, yalnizlik büyük aci,
                G    C
Hangi kapiyi çalsam, karsimda buruk aci

C                                       G
Yillar yili gönlümde, bir gün sabah olmadi,
F                      G               C
Bu ne bitmez çileymis, neden hâlâ dolmadi

F                    G                C
Sevmek korkulu rüya, yalnizlik büyük aci,
                G    C
Hangi kapiyi çalsam, karsimda buruk aci

C                                   G
Ruhumda bir yara var, için için kaniyor,
F                   G             C
Kalbimde buruk aci, alev alev yaniyor

F                    G                C
Sevmek korkulu rüya, yalnizlik büyük aci,
                G    C
Hangi kapiyi çalsam, karsimda buruk aci
Şarkının doğruluğunu nasıl değerlendiriyorsunuz?
39%
Daha önce 21 değerlendirme yapılmış


Bu sayfayı ziyaret edenler bu sayfalara da uğradı :