Yazdır
Seslendiren: Barış Manço
Barış Manço
Gönderen:

Sahilde (Akor)

Cm Fm G Cm
                             Cm                    
E||-------3----6-------4--|--3------------------|
B||-----------------------|---------------------|
G||-----------------------|---------------------|
D||-----------------------|---------------------|
A||-----------------------|---------------------|
E||-----------------------|---------------------|


                                 Fm                                          
-----3--3----3--4---3----1-----|--1------3---1-------|----------3----------|
----------------------------4--|-----------4---------|-----------------4-6-|
-------------------------------|---------------------|---------------------|
-------------------------------|---------------------|---------------------|
-------------------------------|---------------------|---------------------|
-------------------------------|---------------------|---------------------|


                    G                          Cm                   
-------------------|-----3----4---3----1----1-|-3-------------------|
-------------------|----------------------4---|---------------------|
-------------------|--------------------------|---------------------|
-------------------|--------------------------|---------------------|
-------------------|--------------------------|---------------------|
-------------------|--------------------------|---------------------|
                                       
         Cm                    Fm
Yıllar önce yine böyle bir Ağustos akşamı, 
        G                  Cm   
Seninle yürümüştük bu sahilde.

Cm Bb    Cm                     Fm
Birden hala benim gibi sen de hatırlar mısın?
       G                     Cm
El ele söz vermiştik bu sahilde.

  ( G#     Cm G#       G   
  ( Seni bana çok gördüler
  ( G#        Bb
  ( İnanmadın mı bana?
A (              G#
  ( Unutmam demiştim sana
  (                G
  ( O sabah ayrılırken

         Cm                      Fm
Şimdi bilmem kimbilir hangi sahilde neredesin?
            G                Cm
Ben yalnız, acaba sen kiminlesin?

TEKRAR A

          Cm                    Fm
Herkes duysun, tertemiz aşkımın gölgeri 
           G                 Cm  
Tek başına kutladım yıldönümünü

G  Cm
Klibi izlemek için tıklayın

Şarkının doğruluğunu nasıl değerlendiriyorsunuz?
25%
Daha önce 16 değerlendirme yapılmış


Bu sayfayı ziyaret edenler bu sayfalara da uğradı :