Yazdır
Seslendiren: Bülent Ortaçgil
Bülent Ortaçgil
Gönderen:

Aşk Var (Akor)

 D#m7b5                           D#m7b5
|-------------------------------|-----2------2------2------2---|
|--------2------2------2------2-|-----2------2------2------2---|
|-1----2-2--1-2-2--1-2-2--1-2-2-|-1-2-2--1-2-2--1-2-2--1-2-2---|
|-1---------1------1------1-----|-1------1------1------1-------|
|-------------------------------|------------------------------|
|-------------------------------|------------------------------|

 Dm6-5                           C#m
|-----7----7-7------7----7-7----|------9------9------9------9--|
|-6-6-6--6-6-6--6-6-6--6-6-6----|------9------9------9------9--|
|-7-7----7------7-7----7--------|----9------9------9------9----|
|-------------------------------|-11-----11-----11-----11------|
|-------------------------------|------------------------------|
|-------------------------------|------------------------------|

C#m G#m C#m G#m F#m C#m F#m-G#m C#m

C#m
Herkes en doğruyu bilir
G#m
Herkes uzman, herkes rekortmen
C#m
Öyle eminiz ki yolumuzdan
G#m
İster haydut ister centilmen...
F#m
Ama aşk var
        C#m
Bir tek aşk var!
    F#m     A      C#m
Aşk var mı? Var... Aşk var!

Herkes bir inancın peşinde
Herkes militan, herkes fedai
Öyle değiştirdik ki dünyayı
Uyanık akıllı, dürüst enayi
Bir tek aşk var!
Aşk var mı? Var... Aşk var

A               B        G#m      F#m7
Kaf Dağının ardına kaçsa bile aşk var
A           B              G#m      A
Yatak çarşaflarına sıkışsa bile aşk var
F#m             B
Yalnız bir titreşim olsa
G#m            C#m             Intro_____
Ya da bir kıpırtı kalsa bile aşk var

Paranın esiri olduk
Ne kadar iktisat, o kadar mutluluk
Birer birer yeniliyorduk
Önce adalet, sonra güzellik
Bir tek aşk var!
Savaştık, savaşayazdık
Yenen ağlar, yenilen ağlar
Bir baktık ki yapayalnızdık
Diyen ağlar, demeyen ağlar
Bir tek aşk var!
Aşk var mı? Var... Aşk var


Şarkının doğruluğunu nasıl değerlendiriyorsunuz?
10%
Daha önce 12 değerlendirme yapılmış


Bu sayfayı ziyaret edenler bu sayfalara da uğradı :