Yazdır
Seslendiren: Kabus
Kabus
Gönderen:

K.G.B. ( Kabus Gibi Birşey) (Akor)

g-----------------------------------------------
d-----2----(2)---------2---(2)------------------
a---0----------------0--------------------------
E-----------------------------------------------

g-------------------------------------------------
d----2--2-2-2----3-3-3-3----1-1-1-1-----2-2-2-2~~~
a--0--0--0-0----0-0-0-0----0-0-0-0-----0-0-0-0----
E-------------------------------------------------


rhytm,bass ve solo gitar birlikte...(daha gün dogmadan...)

g----------------------------------------------
d-------2-2-3-2-2------1-1-2-1-1-------------              
a--0--0--0-0-0-0---0--0-0-0-0-0----------------
E----------------------------------------------

distortion(overdose)

g---------------------------------------------------------
d---------------------------------------------------------
a--7--7-7-7--7-7-8-8----5--5-5-5--5-5-7-7-----------------
E--5--5-5-5--5-5-6-6----3--3-3-3--3-3-5-5-----------------

  Am       A#
Daha gün dogmadan
 G         Am
Hiçkimse uyanmadan
 Am          A#
Ben öleli çok olmustu
 G              Am
Hayallerim çok bostu
  Am            A#
Basım kötü dönüyordu
 G             Am 
Yüzüm solmus gibiydi
 Am             A#
Kendimi tutarken ben
 G                A#
Düslerim çoktan gitmisti
  Am            A#
Geçmedi ölüm korkusu
 G       Am 
Ölüm heryerde
 Am            A#
Sesim cikmiyor sanki
 G      Am
Herkes nerde ? 
Şarkının doğruluğunu nasıl değerlendiriyorsunuz?
7%
Daha önce 38 değerlendirme yapılmış


Bu sayfayı ziyaret edenler bu sayfalara da uğradı :