Yazdır
Seslendiren: Grup Yorum
Grup Yorum
Gönderen:

Mayıs (Akor)

       Am             E                  
e-----|5--5--5--5-7p5-4-5p4----------5---
B-----|----------------------6-5-6-------
G-----|----------------------------------
D-----|----------------------------------
A-----|----------------------------------
E-----|----------------------------------

   Dm                   E
e------4------------4-----------4-5-7h8p7p5--
B---6----6-5-3-5-6------5-3-5-6--------------
G--------------------------------------------
D--------------------------------------------
A--------------------------------------------
E--------------------------------------------

E         Dm         F             E
Yosun kokuları değil kan tutar baharın yeli
E           Dm      F             E            (Am)
Ey benim sevdiceğim kan tutar baharın yeli

Am         E          Am           E  
Uzanmış boylu boyunca, karanfil kokulu bir kuş
Am      E           Am           E
Elinde ipek mendili, omuzbaşından vurulmuş
Am          E          Dm          E
Günlerin en mavisinde,  düşlerin en mavisinde
Am        E          Dm        E
Sokağın sesi mi olur, düşen çiçeğin yası mı

Karanlığın işi nedir, Mayıs doğmasın diyedir
Geceye ışık saçanın, sevdası ölesiyedir
Uzanmış boylu boyunca, karanfil kokulu bir kuş
Elinde ipek mendili, omuzbaşından vurulmuş

Günlerin en mavisinde,  düşlerin en mavisinde
Sokağın sesi mi olur, düşen çiçeğin yası mı
Halaya durmuşsa mayıs, sokağın sesi de olur
Halaya durmuşsa mayıs, düşen çiçeğin yası da
Şarkının doğruluğunu nasıl değerlendiriyorsunuz?
25%
Daha önce 12 değerlendirme yapılmış


Bu sayfayı ziyaret edenler bu sayfalara da uğradı :