Yazdır
Seslendiren: Barış Manço
Barış Manço
Gönderen:

Nick The Chopper (Akor)

A7M                 G                 F

--------5-------    --------3------   ------1------
--------5-------    --------3------   ------1------
--------5-------    --------4------   ------2------
--------7-------    --------5------   ------3------
--------7-------    --------5------   ------3------
--------5-------    --------3------   ------1------

AM

-----0------
-----1------
-----2------
-----2------
-----0------
-----0------

AM
Down in the forest,near a village
A7M
Lived the man called,nick the chopper
G
Chopping woods his game,and making money
F
Caring no for trees,he blindly chops on
AM
Never took him married.
AM
He never washes
A7M
He never went to school,nick the chopper
G
Chopping woods his game,and getting money
F
Does he care for life of even for a friend now

*****
AM                     G
He is a dirty old man,nick the chopper *2 KERE
AM                        G
We aren't gonna kill you,nick the chopper
AM                              G
Stundle you with your branches,nick the chopper
*****
AM
Now,a very old man he had decided
A7M
To make his fortune,nick the chopper
G
Chopping woods his game,he couldn't stop it
F
He wants to cut down,all the forest
AM
The trees they hated him,they made a promise
A7M
Give him a lesson,nick the chopper
G
Chopping woods his game,he couldn't stop it.
F
But as the story goes,he is  beaten at his game

*****
AM                          G
He is a dirty old man nick the chopper  *2 KERE
AM                          G
We aren't gonna kill you,nick the chopper
AM                              G
Stundle you with your branches,nick the chopper
Klibi izlemek için tıklayın

Şarkının doğruluğunu nasıl değerlendiriyorsunuz?
53%
Daha önce 28 değerlendirme yapılmış


Bu sayfayı ziyaret edenler bu sayfalara da uğradı :