Yazdır
Seslendiren: Alpay , Haramiler
Alpay
Gönderen:

Fabrika Kızı (Akor)

Intro: flüt  ve ritm gitar : Am - G - F - Em ) x 2

flütlü kısım gitarla:
|---------------------------------------------------|
|---------------------------------------------------|
|9-9-9--10p9--7h9--5-5-5--7p5--4h5----2-------------|
|-----------------------------------5---5--3--3p2--2|
|---------------------------------------------------|
|---------------------------------------------------|

Sonra flüt solosu Ritm gitar(distortion) Am-G-F-Em ) x 2

Klavye                       Distortion
Am                          Am  
Gün doğarken her sabah      Fabrikada tütün sarar    
G                           G 
Bir kız geçer kapımda       Sanki kendi içer gibi
F                           F
Köşeyi dönüp kaybolur       Sararken de hayal kurar
Em                          Em
Başı önde yorgunca          Bütün insanlar gibi

Fabrikada tütün...            Sanki kendi...
|12--8-------8--|             |10--7--------7 |
|--------10-----|             |---------8-----|
|---------------| ) x4        |---------------| ) x 4
|---------------|             |---------------|
|---------------|             |---------------|
|---------------|             |---------------|


Sararkende...                  Bütün insan...
|8--5--------5|               |7--4--------4|
|--------6----|               |--------5----|
|-------------| ) x 4         |-------------|
|-------------|               |-------------|  x 4
|-------------|               |-------------|
|-------------|               |-------------|

Am                          Ağlar fabrika kızı
Bir evi olsun ister               |12b--12b--12b|
G                                 |-------------|
Bir de içmeyen kocası             |-------------| SOLO
F                                 |-------------|GİTAR
Tanrı ne verirse geçinip gider    |-------------|
Em                                |-------------|
Yeter ki mutlu olsun yuvası
Am
Dışarda bir yağmur başlar
G
Yüreğinde derin sızı
F
Gözlerinden yaşlar akar
Em
Ağlar fabrika kızı
Am                       Am
Oysa yatağında bile      Makineler diken gibi
G                        G
Bir gün uyku göremez     Batar hergün kalbine
F                        F
İhtiyar anası gibi       Yün örecek elleri
Em                       Em
Kadınlığı bilemez        Hergün ekmek derdinde 

Makineler...                  Batar hergün... 
|12--8-------8--|             |10--7--------7 |
|--------10-----|             |---------8-----|
|---------------| ) x4        |---------------| ) x 4
|---------------|             |---------------|
|---------------|             |---------------|
|---------------|             |---------------|

Yün örecek...                 Hergün ekmek...
|8--5--------5|               |7--4--------4|
|--------6----|               |--------5----|
|-------------| ) x 4         |-------------|
|-------------|               |-------------|  x 4
|-------------|               |-------------|
|-------------|               |-------------|

Gitar solosundan sonra flüt solosu 
Ritm gitar: Am - F- G - Em (distortion)  

Sözlerle beraber klavye akor basıyor:
Am
Gün batarken her akşam
G
Bir kız geçer kapımdan
F
Köşeyi dönüp kaybolur
Em
Başı önde yorgunca

Bitimde flütle beraber gitar Am- G - F - Em (distortion)

Not: Eğer varsa distoriton efektiyle beraber 
delay efektini de kullanınız .
Şarkının doğruluğunu nasıl değerlendiriyorsunuz?
15%
Daha önce 13 değerlendirme yapılmış


Bu sayfayı ziyaret edenler bu sayfalara da uğradı :