Yazdır
Seslendiren: Pentagram
Pentagram
Gönderen:

Fly Forever (Akor)

[RIFF 1]
|--------------|----------------------------|
|--------------|----------------------------|
|--------------|----------------------------|
|--7----10--9--|----7----10--9--------------|
|--7----10--9--|----7----10--9--------------|
|--5-----8--7--|----5-----8--7--------------|

[RIFF 2]
|-------------------------------------------|
|-------------------------------------------|
|-9--X--X--10--X--X--9--X--X--7--X--5--X----|
|-9--X--X--10--X--X--9--X--X--7--X--5--X----|
|-7--X--X---8--X--X--7--X--X--5--X--3--X----|
|-------------------------------------------|

|-------------------------------------------|
|-------------------------------------------|
|-9--X--X--10--X--X--12--X--X--14--X--7--X--|
|-9--X--X--10--X--X--12--X--X--14--X--7--X--|
|-7--X--X---8--X--X--10--X--X--12--X--5--X--|
|-------------------------------------------|


[RIFF 3]
|-------------------|-----------------------|
|-------------------|-----------------------|
|-5--X--X--5--4-----|-5--X--X--5--4---------|
|-5--X--X--5--4--5--|-5--X--X--5--4--7------|
|-3--X--X--3--2--5--|-3--X--X--3--2--7------|
|----------------3--|----------------5------|

INTRO: Am

/ Am 
| From the vision of the pain
| Am 
| Troygt the corners of the wood
|
|
A | G [RIFF1]
| Times you lived your life
| Am
| Bleddin from it's vains of nails 
| Am
| Lived the pain that never ends 
| G [RIFF1]
\ Tree of death



Em F
Since you were from the dirth
Em
And raised too high
F G 
Of what life is worth


/ [RIFF2]
| When you ease your brain
|
| [RIFF2]
| See your dreams over 
|
| [RIFF2] [RIFF3]
| Fence your eager to fly forever
|
|
B | [RIFF2]
| Reaching trough the gun
|
| [RIFF2]
| Role the trigger run
|
| [RIIF2] G
| That's no reason to fly forever
| Am
\ Flyyy........

Am 
Few minutes of fallin' drops
Am
To dry the streams of your blood
G [RIFF1]
You leave your god


/ Em F
| As the mountain on which 
| Em 
C | I close my eyes
| F G
| To embrace the future of my last


TEKRAR B

SOLO ( A ile birlikte Calinacak...)

TEKRAR C

TEKRAR B X 2


Şarkının doğruluğunu nasıl değerlendiriyorsunuz?
0%
Daha önce 2 değerlendirme yapılmış


Bu sayfayı ziyaret edenler bu sayfalara da uğradı :