Yazdır
Seslendiren: Barış Manço
Barış Manço
Gönderen:

Dönence (Bas)

  iNTRO
G|-------------------------|--------------------------|
D|-------------------------|-2-2-2-2---0--3-3-3-3---0-|
A|-----------------3-2-----|--------3-------------3---|
E|-0----0-1---1-3------3-5-|--------------------------|
 \______2 defa____________/ \_________6 defa_________/

Gun coktan dondu...

  1.BOLUM
G|---------------------|------------------------------|
D|---------------------|-2-2-2-2---0--3-3-3-3---0-----|
A|--------------3-2----|--------3------------3--------|
E|-0---0-1--1-3-----3-5|------------------------------|
 \______2 defa________/ \__2.bolume kadar calinacak__/


  2.BOLUM
G|------------|----------------------------------------------------|
D|-7-5-7------|---2-0-2---7-5--7-5-7---------2-0-2---7-5--7-5-7~9--|
A|------7-5-7-|----------------------7-5-7-------------------------|
E|------------|-0-------5------------------0-------5---------------|
               \__Solo bitene kadar calinacak_____________________/

Simsiyah gecenin...
G|-----------------4-5---------------------|
D|---2-0-2---7-5-7-------2-0-2---------5-7-|
A|-------------------------------8-7-8-----|
E|-0-------7-----------0-------7-----------|
  \_____$arki bitene kadar calinacak______/

Biti$
G|-----------------------|
D|-----------------------|
A|----------------3-2----|
E|-0--0--1--1---3-----3-5|
Klibi izlemek için tıklayın

Şarkının doğruluğunu nasıl değerlendiriyorsunuz?
64%
Daha önce 125 değerlendirme yapılmış


Bu sayfayı ziyaret edenler bu sayfalara da uğradı :