Yazdır
Seslendiren: Barış Manço , Haluk Levent
Barış Manço
Gönderen:

Kağızman (Bas)

G -----------+----------+----------+------------------------------------
D -----------+----------+----------+------------------------------------
A -----------+----------+----------+--------------------------------3---
E -3-3-3---5-+-3-3-3--5-+-3-3-3--5-+-3-3-3----5-5-5--5-5-5--5-5-5--3--3-


--------------------------------+-+
-------------------------------*+-+
----------------------3--------*+-+
-1-1-1--1-1-1--1-1-1----2-3-5---+-+

Vokal girince
    Bolum 1
G :-----------------------------::--:----------------::--------------------
D :*---------------------------*::--:*--------------*::-intro tekrar 2 kez-
A :*---------------------------*::--:*-------5----7-*::---calinacak--------
E :--5-5-5--5-5-5--5-5-5--3-3-3-::--:----1----3------::--------------------

Vokal tekrar girdiginde bolum 1 aynen calinacak.

Soloya gecildiginde

G:-----------------------------::-:-----------------------------------------:
D:*---------------------------*::-:*---------------------------------------*:
A:*---------------------------*::-:*---------------------------------------*:
E:--2-3-555555--1-1-3-3-5-5-5--::-:--555-333-555-333-555-333--1-1-3-3-5-5-5-:

(HEEEYYYY..)
G :-------------------------------------------::-:-----------------------------------::
D :*-----------------------------------------*::-:*---------------------------------*::
A :*-3333-333-3333-333-3333-333--------------*::-:*-555---555---555-----------------*::
E :-----------------------------1-1-3-3-5-5-5-::-:-----555---555---555-1-1-3-3-5-5-5-::
Klibi izlemek için tıklayın

Şarkının doğruluğunu nasıl değerlendiriyorsunuz?
65%
Daha önce 49 değerlendirme yapılmış


Bu sayfayı ziyaret edenler bu sayfalara da uğradı :