Yazdır
Seslendiren: Barış Manço
Barış Manço
Gönderen:

Dönence (Bas)

INTRO

riff 1 x2
riff 2 x2
riff 3 x2
riff 2
riff 3 x2

Riff 1
G|----------|-----------|-----------|-----------|
D|----------|-----------|-----------|-----------|
A|----------|-----------|-----------|-3-2-------|
E|-0--------|-0-1-------|-1-3-------|-----3-5---|

Riff 2
G|------------|------------|
D|------------|------------|
A|-77-77----5-|-88-88----5-|
E|--------7---|--------7---|

Riff 3        x3
G|-------------|------------|
D|------------*|------------|
A|-77-77----5-*|-88-88----5-|
E|--------7----|--------7---|

en sonda:
G|---------|
D|---------|
A|-7-------|
E|---------|


SÖZLER

Önce riff 1 x2

Riff 2                
G|------------|-------------|
D|------------|------------*|
A|-77-77----5-|-88-88----5-*|
E|--------7---|--------7----|

İlk kıtanın sonuna kadar ve daha sonraki kıtalarda
çalınacak. Kıta aralarında ise sadece:
              x4
G|-------------|
D|------------*|
A|-77-77----5-*|
E|--------7----|

en sonda:
G|---------|
D|---------|
A|-7-------|
E|---------|


SOLO

G|--------------|
D|----75h7------|
A|---------75p4-|
E|--------------|

G|---------------|-----------------|
D|*--------------|----------------*|
A|*---5-4--5-5h7-|---5-4--5-------*|
E|--0------------|-0--------7p5p4--|


SÖZLER TEKRAR BAŞLAYINCA:

G|--------------|----------4h5|--------------|-------------|
D|--------------|-------------|---5-4--5-5h7-|-------------|
A|---5-4--5-5h7-|-------------|-7------------|-5-8-7-8--4h5|
E|-0------------|-0-5-7-8-----|--------------|-------------|

Kıta aralarında sadece:
                               x2
G|--------------|----------4h5--|
D|--------------|--------------*|
A|---5-4--5-5h7-|--------------*|
E|-0------------|-0-5-7-8-------|

en sonda:
G|--------------|-------------|---------|
D|---5-4--5-5h7-|-------------|---------|
A|-7------------|-5-8-7-8-----|---------|
E|--------------|-------------|-0-------|
Klibi izlemek için tıklayın

Şarkının doğruluğunu nasıl değerlendiriyorsunuz?
64%
Daha önce 90 değerlendirme yapılmış


Bu sayfayı ziyaret edenler bu sayfalara da uğradı :