Yazdır
Seslendiren: Cem Karaca , Teoman
Cem Karaca
Gönderen:

Resimdeki Gözyaşları (Bas)

TUNNİNG:G,D,A,C       
C:E'nin 3 perde kalınlaştırılmış hali

|---------------------------------|----------|
|---------------------------------|----------|
|REST-----------------------------|----------|
|---------------------------------|--0-0-7\0-|

|-----------------|  |-------|
|-----------------|  |-------|
|-----------------|  |-------|
|-0--00-0-0-00-00-|  |-0-----|
\_______4 DEFA____/

DİZE
|------------------|------------------|------------------|
|------------------|------------------|------------------|
|------------------|------------------|------------------|
|-0-00-0-0-00-00-0-|-5-55-5-5-55-55-5-|-2-22-2-2-22-22-2-|

|-----------------------------------|
|-----------------------------------|
|-----------------------------------|
|-7-77-7-7-77-77-7-7-77-7-7-77-77-7-|

DİZE 2
|-----------------------------------|--------------------|
|-----------------------------------|--------------------|
|-----------------------------------|--------------------|
|-0-00-0-0-00-00-0-0-00-0-0-00-00-0-|-5-55-5-5-55-55-5-5-|

|----------------|-----------------------------------|
|----------------|-----------------------------------|
|----------------|-----------------------------------|
|-55-5-5-55-55-5-|-2-22-2-2-22-22-2-2-22-2-2-22-22-2-|

|-----------------------------------|
|-----------------------------------|
|-----------------------------------|
|-7-77-7-7-77-77-7-7-77-7-7-77-77-7-|

NAKARAT
|------------------|------------------|------------------|
|------------------|------------------|------------------|
|------------------|------------------|------------------|
|-5-55-5-5-55-55-5-|-0-00-0-0-00-00-0-|-7-77-7-7-77-77-7-|

|------------------|------|
|------------------|------|
|------------------|------|
|-0-00-0-0-00-00-0-|-0----|

DİZE 2 X2
NAKARAT

|----------------|
|----------------|
|----------------|
|-0-00-0-0-00-00-|
\______4 DEFA____/

SOLO
|-------------------------------------|
|-------------------------------------|
|-------------------------------------|
|-5--------0--------7--------0--------|
\______________2 DEFA_________________/

NAKARAT X2
DİZE
BİTİŞ
|------------------|   |---------|
|------------------|   |---------|
|------------------|   |---------|
|-0-00-0-0-00-00-0-|   |-0-------|
\_____8 DEFA_______/
Şarkının doğruluğunu nasıl değerlendiriyorsunuz?
65%
Daha önce 21 değerlendirme yapılmış


Bu sayfayı ziyaret edenler bu sayfalara da uğradı :