Yazdır
Seslendiren: Nilüfer
Nilüfer
Gönderen:

Çok Uzaklarda (Tab)

  Em                Am                Em                B7                Em
E|--------|--------|--------|--------|--------|--------|--------|--------|--------|
B|-0001-0-|-0001-0-|----0---|----0---|--------|--------|--------|--------|----0---|
G|-0002-0-|-0002-0-|-2222-2-|-2222-2-|-0002-0-|-0002-0-|----0---|----0---|--0--0-0|
D|--------|--------|-444--4-|-444--4-|-2224-2-|-2224-2-|-4444-4-|--444-4-|-2-2--2-|
A|--------|--------|0-------|--------|--------|--------|-666--6-|--66--6-|--------|
E|0-------|--------|--------|--------|0-------|--------|7-------|7-----7-|O-------|

  Am                        Em                B7                Em
E|----0---|--------0-------|--------|--------|----2~~~|--------|--------|
B|11111-1-|--1-1-1-1----320|~-------|--------|---0----|-0------|----0---|
G|2222--2-|--2-2-2---------|-0002-0-|-0002-0-|--2-----|---2----|--0--0-0|
D|--------|----------------|-2224-2-|-2224-2-|-1------|----0---|-2-2--2-|
A|0-------|0---------------|--------|--------|2-------|2-----4-|--------|
E|--------|----------------|--------|0-------|--------|--------|O-------|

Klibi izlemek için tıklayın

Şarkının doğruluğunu nasıl değerlendiriyorsunuz?
59%
Daha önce 62 değerlendirme yapılmış


Bu sayfayı ziyaret edenler bu sayfalara da uğradı :