Yazdır
Seslendiren: Barış Manço
Barış Manço
Gönderen:

Arkadaşım Eşek (Tab)

   Em                                Am                 Em
E||-------------------------------|------------------------------|
B||-----------0--0---1----1--0----|------------1----1---0--------|
G||*------------------------------|--2----2--2-------------------|
D||*--2--2--2---------------------|------------------------------|
A||-------------------------------|------------------------------|
E||-------------------------------|------------------------------|

  Am             Em                D               Em         x2
---------------------------------|----------------------------||
------------1----1--0------------|----------------------------||
--2----2--2------------2--0------|----------0----------------*||
---------------------------------|--4--4--4----4---2---------*||
---------------------------------|----------------------------||
---------------------------------|----------------------------||

---0----0------------------------------|----------------------------|
-------------3----3----1----1----0-----|----------1----1---0--------|
*--------------------------------------|--2--2--2-------------------|
*--------------------------------------|----------------------------|
---------------------------------------|----------------------------|
---------------------------------------|----------------------------|


                                                        x2
-----------------------------|----------------------------||
--------1----1--0------------|----------------------------||
--2--2-------------2--0------|----------0----------------*||
-----------------------------|--4--4--4-----4---2--------*||
-----------------------------|----------------------------||
-----------------------------|----------------------------||


(nakarat)
----------------------------|--------------------------|
----------------------------|--------------------------|
--------0------------0------|-------0------------------|
--2--4----2----2--4----2----|--2--4----2--0--2---------|
----------------------------|--------------------------|
----------------------------|--------------------------|



--0--2-3--0----0--2-3--0----|--0--2-3--0-----0---------||
----------------------------|-------------3------------||
----------------------------|--------------------------||
----------------------------|--------------------------||
----------------------------|--------------------------||
----------------------------|--------------------------||

Klibi izlemek için tıklayın

Şarkının doğruluğunu nasıl değerlendiriyorsunuz?
21%
Daha önce 63 değerlendirme yapılmış


Bu sayfayı ziyaret edenler bu sayfalara da uğradı :