Yazdır
Seslendiren: Yaşar
Yaşar
Gönderen:

Kumralım (Tab)

Intro:
       
    E---0-0-0-1-0---------------------1--0--1--0--1----------------
    B---1------------3-3-3-5-3-----0--1--0--1--0--1--3--1--0-------
    G---2------------4------------2---2--2--2--2--2-----------2----
    D---2------------5----------------3--3--3--3--3----------------
    A---0-----------------------------3--3--3--3--3----------------
    E----------------3----------------1--0--1--0--1----------------


    E------------0--------0---------------------------------------
    B----------0---0--------3--1--0----1-1-1-3-1----0-0-0-1-0-----
    G--------1-------1-----------------2--------------------------
    D------2-----------2---------------2--------------------------
    A----2-----------------------------0--------------------------
    E--0--------------------------------------------3-------------


    E-------1--1--1--1--1-------------0--
    B-------1--1--1--1--1---0---------0--
    G---0---2--1--2--1--2-----2-1-----1--
    D--3----3--3--3--3--3---------3---2--
    A-------3--3--3--3--3-------------2--
    E-------1--1--1--1--1-------------0--


    ( Am           G
    ( Hüzünler basima vurdu yine
    (      F                           E
    ( Sevginin çikmaz yollarinda senin dolaylarinda
    (      Am                  G
    ( Sana dair hasretim yüzyillardan kalma
    ( F                            E
    ( Aklimi kaçiriyorum bu cinnet aksamlarinda
  A ( 
    (      Am                    G               )
    ( Orda her kiminleysen belki sevgilinleysen  )
    (       F                      E             )
    ( Söyle kumralim için sizlamaz mi            )
    (        Am                  G               ) 2
    ( Bilmem hatirlar misin gözlerim ne renkti   )
    (       F                   E                )
    ( Söyle kumralim benim adim neydi            )

  Am                  G
  Sahip oldugum herseydin
  F                 E
  Herseyimi alip gittin

  TEKRAR A

     Am                    G
  Bu kaçinci hasretim aylardan hangi aydir
        F                      E
  Söyle kumralim ben adimi unuttum
         Am                  G
  Bilmem hatirlar misin gözlerim ne renkti
        F                   E
  Söyle kumralim benim adim neydi

       Am                   G                )
  Ne zaman günes dogar aylardan hangi aydir  )
        F                      E             )
  Söyle kumralim ben adimi unuttum           )
         Am                      G           ) 2
  Bilmem hatirlar misin gözlerim ne renkti   )
        F                   E                )
  Söyle kumralim benim adim neydi            )
Şarkının doğruluğunu nasıl değerlendiriyorsunuz?
27%
Daha önce 96 değerlendirme yapılmış


Bu sayfayı ziyaret edenler bu sayfalara da uğradı :