Yazdır
Seslendiren: Barış Manço
Barış Manço
Gönderen:

Trip! (Tab)

Intro:
  E|-------------------------------------------------------------
  B|-5s3-3-3s5-5s7-7s8-8-8s10-10s8-8-7s5-3s5
  G|-------------------------------------------------------------
  D|-------------------------------------------------------------
  A|-------------------------------------------------------------
  E|-------------------------------------------------------------

Bass:
G|-----------------------------------------------
D|----------5-5-5--7-7-7--------------------
A|-7-7-7---------------------5-5-3-3-------
E|-----------------------------------------------

Verse:

E|----------------------------------------------------------
B|----------------------------------------------------------
G|-9-9-9--7-7-7--9-9-9--7----5---------------------
D|-9-9-9--5-5-5--7-7-7--7----5---------------------
A|-7-7-7---------------------5----3---------------------
E|----------------------------------------------------------

Chorus:

E|----------------------------------------------------------
B|----------------------------------------------------------
G|-7--9--9--7--9--9--7--9--9--7----7-7-7--7-7-7
D|-7--9--9--7--9--9--7--9--9--5----7-7-7--7-7-7
A|-5--7--7--5--7--7--5--7--7--------5-5-5--5-5-5
E|----------------------------------------------------------

E|-------------------------------------------------------------
B|-------------------------------------------------------------
G|-9-9-9--7-7-6--7--7-----------------------------------
D|-9-9-9--5-5-4--7--7-----------------------------------
A|-7-7-7------------5--5-----------------------------------
E|-------------------------------------------------------------

TEKRAR Intro


Şarkının doğruluğunu nasıl değerlendiriyorsunuz?
25%
Daha önce 14 değerlendirme yapılmış


Bu sayfayı ziyaret edenler bu sayfalara da uğradı :