Yazdır
Seslendiren: Barış Manço
Barış Manço
Gönderen:

Katip Arzuhalim Yaz Yare Böyle (Tab)

intro:   Em
Akor =  G, Em, G, Em, G, Am, G, D, Em, Am, G, D, Em

Melodi:
   G                                             Em

e|-3-5-7---8--7h8p7---8--7h8p7--8--7h8p7--5--8--7~~~--|
b|----------------------------------------------------|
g|----------------------------------------------------|
d|----------------------------------------------------|
a|----------------------------------------------------|
e|----------------------------------------------------|



   G                                             Em

e|-3-5-7---8--7h8p7---8--7h8p7--8--7h8p7--5--8--7~~~--|
b|----------------------------------------------------|
g|----------------------------------------------------|
d|----------------------------------------------------|
a|----------------------------------------------------|
e|----------------------------------------------------|


   G                                             

e|-3-5-7---8--7h8p7---8--7h8p7--8--7h8p7--5--8--7h8p7--5-3-|
b|---------------------------------------------------------|
g|---------------------------------------------------------|
d|---------------------------------------------------------|
a|---------------------------------------------------------|
e|---------------------------------------------------------|


   Am               G                D                Em

e|-5s7--5---3-3-2-|-3s5--3---2-2-0-|-2s3--2---2-0-2-|-0~~~~|
b|----------------|----------------|----------------|------|
g|----------------|----------------|----------------|------|
d|----------------|----------------|----------------|------|
a|----------------|----------------|----------------|------|
e|----------------|----------------|----------------|------|

   Am
  
e|---5-5-5---8p7p5-5---8p7p5-5---8p7p5-5---8p7p5-5--3-3--2-|
b|---------------------------------------------------------|
g|---------------------------------------------------------|
d|---------------------------------------------------------|
a|---------------------------------------------------------|
e|---------------------------------------------------------|

   G                 D               Em

e|-3s5--3---2-2-0-|-2s3--2---2-0-2-|-0~~~~~--|
b|----------------|----------------|---------|
g|----------------|----------------|---------|
d|----------------|----------------|---------|
a|----------------|----------------|---------|
e|----------------|----------------|---------|

Şarkının doğruluğunu nasıl değerlendiriyorsunuz?
64%
Daha önce 19 değerlendirme yapılmış


Bu sayfayı ziyaret edenler bu sayfalara da uğradı :