Yazdır
Seslendiren: Hasan Cihat Örter
Hasan Cihat Örter
Gönderen:

Romans (Tab)

Parti 1:
E minor   

E-|-7---7---7---|-7---5---3---|-3---2---0---|
B-|--0---0---0--|--0---0---0--|--0---0---0--|
G-|---0---0---0-|---0---0---0-|---0---0---0-|
D-|-------------|-------------|-------------|
A-|-------------|-------------|-------------|
E-|-0-----------|-0-----------|-0-----------|

E-|-0---3---7---|-12-12--12---|-12--10--8---|
B-|--0---0---0--|---0--0---0--|--0---0---0--|
G-|---0---0---0-|----0--0---0-|---0---0---0-|
D-|-------------|-------------|-------------|
A-|-------------|-------------|-------------|
E-|-0-----------|-0-----------|-0-----------|

   C5------------------------\   C7--------\    
E-|-8---7---5---|--5---7--8---|-7---8---7---|
B-|--5---5---5--|---5---5--5--|--7---7---7--|
G-|---5---5---5-|----5---5--5-|---8---8---8-|
D-|-------------|-------------|-------------|
A-|-0-----------|--0----------|-------------|
E-|-------------|-------------|-7-----------|
   C7----------\    
E-|-11--8---7---|--7---5--3---|-3---2---0---|
B-|---7--7---7--|---0---0--0--|--0---0---0--|
G-|----8--8---8-|----0---0--0-|---0---0---0-|
D-|-------------|-------------|-------------|
A-|-------------|-------------|-------------|
E-|-7-----------|--0----------|-0-----------|
    
E-|-2---2---2---|--2---3---2---|-0---0---0--|
B-|--0---0---0--|---0---0---0--|--0---0---0-|
G-|---2---2---2-|----2---2---2-|---0---0---0|
D-|-------------|--------------|-2----------|
A-|-2-----------|--2-----------|-----2------|
E-|-------------|--------------|---------3--|
   
Part 2:E major
                                C2----------\   
E-|-4---4---4---|--4---2---0---|-------------|
B-|--0---0---0--|---0---0---0--|-5---4---4---|
G-|*--1---1---1-|----1---1---1-|--2---2---2--|
D-|*------------|--------------|---4---4---4-|
A-|-------------|--------------|-0-----------|
E-|-0-----------|--0-----------|-------------|
 
   C2---------\   C7------------------------\        
E-|-------------|--9---9---9---|-9--11--9----|
B-|-4---3---4---|---7---7---7--|--7---7--7---|
G-|--2---2---2--|----8---8---8-|---8---8--8--|
D-|---4---4---4-|--------------|-------------|
A-|-0-----------|--------------|-------------|
E-|-------------|--7-----------|-7-----------|
 
                                C9----------\    
E-|-9---7---7---|--7---9---11--|-12--12--12--|
B-|--9---9---9--|---9---9----9-|---9---9---9-|
G-|---9---9---9-|----9---9----9|----9---9---9|
D-|-------------|--------------|-------------|
A-|-------------|--------------|-------------|
E-|-0-----------|--0-----------|-0-----------|
  
   C9---------\  C5------------------------\   
E-|-12--11--10--|--9---9---9---|-9---7---5---|
B-|---9---9---9-|---5---5---5--|--5---5---5--|
G-|----9---9---9|----6---6---6-|---6---6---6-|
D-|-------------|--------------|-------------|
A-|-------------|--0-----------|-0-----------|
E-|-0-----------|--------------|-------------|
         
                          C2--E-|-4---4---4---|--4---5---2---|-0---0---0---|
B-|--0---0---0--|---0---4---4--|--0---0---0--|
G-|---1---1---1-|----1---2---2-|---1---1---1-|
D-|-------------|--------------|-2-----------|
A-|-------------|--------------|-----2-------|
E-|-------------|--------------|---------4---|
                         
Şarkının doğruluğunu nasıl değerlendiriyorsunuz?
28%
Daha önce 62 değerlendirme yapılmış


Bu sayfayı ziyaret edenler bu sayfalara da uğradı :