Yazdır
Seslendiren: Barış Manço , Teoman
Barış Manço
Gönderen:

Anlıyorsun Değil mi (Tab)

e|------0-0-1-1-0---0-0-------------------------------0--|
B|---3-3----------3-----1-1-3--------------------3-3-2-3-|
G|2-2------------------------2-2-3-3-3-2-0-2--2-2--------|
D|-------------------------------------------------------|
A|--(PARTİ1)------------------------------------------(2)|
E|---------------------------------------------------KERE|


e|-------------------------------------------------------|
B|-3-2-3-2-----3-2-----3-2-3-2----3-2-------------3-2----|
G|---------3-3-----3-2---------3-3----3-2--2-2-3-3---3-2-|
D|-------------------------------------------------------|
A|-------------------------------------------------------|
E|-------------------------------------------------------|


e|-----1-0---------I-5-5-6-5-3-5-0-1-3-5P6P5-3P5P3-1P3P1-|
B|---------3-2-3/10I-------------------------------------|
G|-2-2-------------I-------------------------------------|
D|-----------------I-------------------------------------|
A|-----------------I-(PARTİ2)----------------------------|
E|-----------------I-------------------------------------|



e|-0P1P0---I---------------------------------------------|
B|-------3-I---P=PULL-OF SOUNDU--BU ŞARKIYA GÖRE:--------|
G|---------I---------------------------------------------|
D|---------I-------------------- TEK VURUŞLA 3 SES ------|
A|-----(2)-I-----------------------ANLAMINDADIR-----SON.-|
E|----KERE-I---------------------------------------------|


          .--------.
        /            \   
       |    ======    |
       |     BERK     |    
        \     __     /
         |   |  |   |
        .'   `--'   `.    
        |    |--|    |
         \   |--|   /      
          `--|--|--'
             |--|     
             |--|      
             |--|     
             |--|     
             |--|     
             |--|     
             |__|
            /               -|#  #|-
           -|#  #|-
           -|#  #|-
            `----'
Klibi izlemek için tıklayın

Şarkının doğruluğunu nasıl değerlendiriyorsunuz?
28%
Daha önce 62 değerlendirme yapılmış


Bu sayfayı ziyaret edenler bu sayfalara da uğradı :