Yazdır
Seslendiren: Barış Manço
Barış Manço
Gönderen:

Unutamadım (Tab)

e|(PARTİ 1)------------------------------------------------|
B|--------0-------1-1-1-0-----0---------------0------------|
G|----2-0---0-------------2-0----0--------2-0---0----------|
D|--2---------3-2-----------------3-2---2---------3-2------|
A|---------------------------------------------------------|
E|---------------------------------------------------------|

e|------------------------I--------------------------------|
B|-1-1-0-----0-------0-1--I1-0-3-1-0--0-0-0---1-0----------|
G|-------2-0-----0-2------I-----------------2-----2-2-2-2-0|
D|------------------------I--------------------------------|
A|------------------------I(PARTİ 2)-----------------------|
E|------------------------I--------------------------------|


e|---------------------------------------------------------|
B|-0---------0-3-1--1-0-3-1-0--0---1-0---------0-----------|
G|--0-----0-2--------------------2-----2-2-2-0--0----------|
D|---3-2-3----------------------------------------3-2------|
A|---------------------------------------------------------|
E|---------------------------------------------------------|


e|-0-0-0-1-0-1-0------0-0-0-1-0---0--------0-0-1-0-----0-0-|
B|---------------3-0------------3----0-1-3---------3-0-----|
G|----------------------------------2----------------------|
D|---------------------------------------------------------|
A|---------------------------------------------------------|
E|---------------------------------------------------------|
                

e|-1-0---0---3-1-0-1-0---0-------------0-------------------|
B|-----3---------------3---1-0-0-3-1-0---3-1---1---3-3-1-0-|
G|-------------------------------------------4-------------|
D|---------------------------------------------------------|
A|---------------------------------------------------------|
E|---------------------------------------------------------|


e|---------------------------------------------------------|
B|---------------------------------------------------------|
G|---(PARTİ 2) ÇALINACAK ARDINDAN (PARTİ 1)----------------|
D|---------------------------------------------------------|
A|-----------------------------------------------SON.------|
E|---------------------------------------------------------|

          .--------.
        /            \   
       |    ======    |
       |     BERK     |    
        \     __     /
         |   |  |   |
        .'   `--'   `.    
        |    |--|    |
         \   |--|   /      
          `--|--|--'
             |--|     
             |--|      
             |--|     
             |--|     
             |--|     
             |--|     
             |__|
            /               -|#  #|-
           -|#  #|-
           -|#  #|-
            `----'

Klibi izlemek için tıklayın

Şarkının doğruluğunu nasıl değerlendiriyorsunuz?
38%
Daha önce 56 değerlendirme yapılmış


Bu sayfayı ziyaret edenler bu sayfalara da uğradı :