Yazdır
Gönderen:

Tek Başına (Tab)

e|---------------------------------------------------------|
B|-----7-7------------------------------8------------10----|
G|-9-9--------------------9-9-10-9-10-9---10-9-7-6-7-------|
D|--------10-10-9-9-7-6-7----------------------------------|
A|---------------------------------------------------------|
E|---------------------------------------------------------|

e|-7-8-7-8-7-10-8-7----------------------------------------|
B|---------------------------------------------------------|
G|------------------9-9-10-9-9-7---------------9-9-9-------|
D|-------------------------------10-9-9-9-9-9-9------------|
A|--------------------------------------------------NAK-}}-|
E|---------------------------------------------------------|

e|---8----8-10-8-7-7-8-10-7----8-8-7-----7-8----------8-7--|
B|-------------------------8-6------10-10----10------------|
G|-9--9-10--------------------9----------------10-9-8------|
D|---------------------------------------------------------|
A|---------------------------------------------------------|
E|---------------------------------------------------------|

e|------------------7-8-7-10-12-10-8-7/8/7-----------------|
B|-10-9-10-9-10-9-10---------------------------------------|
G|----------------------------------------10--SON.---------|
D|---------------------------------------------------------|
A|---------------------------------------------------------|
E|---------------------------------------------------------|

          .--------.
        /            \   
       |    ======    |
       |     BERK     |    
        \     __     /
         |   |  |   |
        .'   `--'   `.    
        |    |--|    |
         \   |--|   /      
          `--|--|--'
             |--|     
             |--|      
             |--|     
             |--|     
             |--|     
             |--|     
             |__|
            /               -|#  #|-
           -|#  #|-
           -|#  #|-
            `----'

Şarkının doğruluğunu nasıl değerlendiriyorsunuz?
46%
Daha önce 6 değerlendirme yapılmış


Bu sayfayı ziyaret edenler bu sayfalara da uğradı :