Yazdır
Seslendiren: Hakan Peker , Neşe Karaböcek
Hakan Peker
Gönderen:

Artık Sevmeyeceğim (Tab)

e-----------------|----------------|----------------
b-----------------|---------0-1----|-0-1-3-1-0------
g-----0-----------|-----0-2-----2--|-----------2-0--
d-2-3---3-2-0-2---|-2-3------------|----------------
a-----------------|----------------|----------------
e-----------------|----------------|----------------

                                     
e-----------------|----------------|-0-0-0-0-0------
b---0-1-0---------|----------------|-----------0-3--
g-2-------2-0-----|-----0----------|----------------
d-------------3---|-2-3---3-2-0-2--|----------------
a-----------------|----------------|----------------
e-----------------|----------------|----------------

                                     
e-0-1-0-1-0-------|----------------|----------------
b-----------0-3---|-0-1-3-1-0------|---0-1-0--------
g-----------------|-----------2-0--|-2-------2-0----
d-----------------|----------------|-------------3--
a-----------------|----------------|----------------
e-----------------|----------------|----------------

e-----------------
b-----------------
g-----0-----------
d-2-3---3-2-0-2---
a-----------------
e-----------------
Klibi izlemek için tıklayın

Şarkının doğruluğunu nasıl değerlendiriyorsunuz?
62%
Daha önce 229 değerlendirme yapılmış


Bu sayfayı ziyaret edenler bu sayfalara da uğradı :