Yazdır
Seslendiren: Barış Manço
Barış Manço
Gönderen:

Gülpembe (Tab)

   Riff1:
e|---------------------------         B|---------------------------          |
G|-14---13-11----14---13-11--          |
D|---------------------------          |
A|---------------------------          |
E|---------------------------          |
                                       | 2 kere
e ----------------------------------|  |
B -------------12-------------------|  |
G --14--13-11------14-13-13---11-11-|  |
D ----------------------------------|  |
A ----------------------------------|  |
E ----------------------------------| /
 


   Riff2:
e|-----------------------12------------------------|
B|------------12-14---12------15--14--12--14p12-14-|
G|---11-13-14--------------------------------------|
D|-------------------------------------------------|
A|-------------------------------------------------|
E|-------------------------------------------------|
   \__________________2 kere______________________/


   Riff3:
              ...... hızlı.............> > > 
e|-----------------------------------------
B|------12---------------------------------
G|13h14-----13h14-13-16-13-17-13-16-13-14--
D|-----------------------------------------
A|-----------------------------------------
E|-----------------------------------------


    < <.....hızlı.......
e ------------------------------------------------|
B -----------------------14--12-------------------|
G -13h14-13-16-13-17-13----------14--13--14p13-11-|
D ------------------------------------------------|
A ------------------------------------------------|
E ------------------------------------------------|


    Riff4:
    .....hızlı.......
e|----------------------------------
B|----------------------14-12-------
G|-13h14-13-16-13-17-13-------14-13-
D|----------------------------------
A|----------------------------------
E|----------------------------------

e 12---------------------------------------|
B ---15--14--12-14--12---------------------|
G ---------------------14-13--14p13-11-----|
D -----------------------------------------|
A -----------------------------------------|
E -----------------------------------------|

- Tekrar Riff1
---
Solo2:

e|-----------------------------
B|-----14--14--14-15-14-12-14--
G|-----------------------------
D|-16--------------------------
A|-----------------------------
E|-----------------------------

e ------------------------------------|
B -12----12--12------12--14--14-12----|
G ----14---------14-------------------|
D ------------------------------------|
A ------------------------------------|
E ------------------------------------|

e|--------------------------------------------
B|--------------------12----------------------
G|-14-13-14--13----14----14-13-14---13-11-13--
D|--------------------------------------------
A|--------------------------------------------
E|--------------------------------------------

e ----------------------------|
B ----------------------------|
G -11-13-14--14--13-11-----11-|
D ---------------------14-----|
A ----------------------------|
E ----------------------------|

e|----------------------------|
B|----------------------------|
G|----11--11--13-11-----11----|
D|-14---------------14--------|
A|----------------------------|
E|----------------------------|
Klibi izlemek için tıklayın

Şarkının doğruluğunu nasıl değerlendiriyorsunuz?
40%
Daha önce 58 değerlendirme yapılmış


Bu sayfayı ziyaret edenler bu sayfalara da uğradı :