Yazdır
Seslendiren: Barış Manço
Barış Manço
Gönderen:

Kol Düğmeleri (Tab)

 1------------------------------------------------------|
 2------------------------------------------------------|
 3----------------------0-0------------0-0--------------|
 4--------2---------2--------3-2-0-2--------3-2-0-2-----|
 5-0-2-3-----0-2-3--------------------------------------|
 6------------------------------------------------------|

 1------------------------------------------------------|
 2------------------------------------------------------|
 3--2-2-----------2-2-----------------------------------|
 4-------3-2-0-2------3-2-0-2--------0-2-3-2-0----3-2-0-|
 5--------------------------------3---------------------|
 6------------------------------------------------------|

 1------------------------------------------------------|
 2------------------------------------------------------|
 3------------------------------0-----------------------|
 4---2-0----------3-2--0----0-0----3--2-----------------|
 5--------3---3----------3------------------------------|
 6------------------------------------------------------|
Şarkının doğruluğunu nasıl değerlendiriyorsunuz?
45%
Daha önce 36 değerlendirme yapılmış


Bu sayfayı ziyaret edenler bu sayfalara da uğradı :