Yazdır
Seslendiren: Pentagram
Pentagram
Gönderen:

Uzun İnce Bir Yoldayım (Tab)

Em        D      Em     D-Em
Uzun ince bir yoldayım
Em        D      Em   D-Em
Gidiyorum gündüz gece
D                       Em        Am
Bilmiyorum ne haldeyim, gidiyorum gündüz gece
Em           D           Em
Gündüz gece, gündüz gece vay
Em         D     Em   D-Em
Dünyaya geldiğim anda
Em        D    Em    D-Em
Yürüdüm hayli zamanda
D                     Em        Am
İki kapılı bir handa, yürüyorum gündüz gece
Em           D           Em
Gündüz gece, gündüz gece vayGiriş

-----------------------------------
-----------------------------------
-----------------------------------
------------6-5h6------------------
--5h6-8-8-8-------8---7--X--9--X--5
----------------------5--X--7--X--3


---------------------------------------------------------------------------
---------------------------------------------------------------------------
---------------------------------------------------------------------------
-----------------------------------------------------------2---------------
-----4h5-7-5-7---7-5-7------4h5-7-5---5-4-5---------2-4-5---2---2----2-----
--0-----------------------0-----------------------0-----------------5------


--------------------------------------------------------------
--------------------------------------------------------------
--------------------------------------------------------------
--------------------------------------------------------------
--2----------------------2----------------------2-2-----------
--0---0-2-3-5-0-6-6-6-6--0---0-2-3-5-0--6-6-6-6-0-0-----------

Her cümlenin sonunda:

-----------------------------------------
--12-10-12-8-10---8p7-5--8-7--3-5--------
-----------------------------------------
-----------------------------------------
-----------------------------------------
-----------------------------------------

Chorus

----------------------------------------------------------
----------------------------------------------------------
----------------------------------------------------------
--7-7-7---6-6-6---4-4-4--2-2-2----------------------------
--5-5-5---4-4-4---2-2-2--0-0-0--5-5-5---4-4-4---2-2-2-2---
--------------------------------3-3-3---2-2-2---0-0-0-0---





Solo by Demir Demirkan
|--------------------------------------------------------------------------
|-7-8-8/10~~--8p7p5-8-7~-3-3/5~~~----12-10-12-8-10~~-8p7p5-8-7-3--3/5~~~---
|--------------------------------------------------------------------------
|--------------------------------------------------------------------------
|--------------------------------------------------------------------------
|--------------------------------------------------------------------------



guitar 2 just goes crazy, this part of the solo has a jazzy feeling!

                                   guitar 1
---------7--------10-8-7---------|---------------10-8-7------------------|
--8~-7-8---10-8-7--------10-8-7--|----------8h10--------10-8-7-5-3-2-3---|
---------------------------------|------7h9------------------------------|
---------------------------------|--7h9----------------------------------|
---------------------------------|---------------------------------------|
---------------------------------|---------------------------------------|


|------12-8----10-7---8-5----------------------------------10~~~---|
|--10-------10------8-----7-10-8-5-0-3h5-0-5h7-0-7h8-0-7-8---------|
|------------------------------------------------------------------|
|------------------------------------------------------------------|
|------------------------------------------------------------------|
|------------------------------------------------------------------|
Şarkının doğruluğunu nasıl değerlendiriyorsunuz?
60%
Daha önce 95 değerlendirme yapılmış


Bu sayfayı ziyaret edenler bu sayfalara da uğradı :