Yazdır
Seslendiren: Feridun Düzağaç
Feridun Düzağaç
Gönderen:

Aşkın E Hali (Tab)

Gm F D# D Cm

e--------13--------------------------------------------------------------------------------
B---11/13--15---------13-15------------13-15-------13-15-15/18-16-15-16~-------------------
G------------15-12~-15-----15--15-15-15-------15-15----------------------15-15h14-15h14-15-

e-------------------------------------------------------------------10-8-7-8~--------------
B-------------------------------------------16h15-13-15~-----------------------------------
G---15-15-15/17-17/19-14~--12-14-15-12-12-12-------------12-12-14-15---------12-12h11-12h11

e--------------------------
B--------------------------
G---12--12-12-14-14b16-11~-

Gm          Am                  Gm    
Hiçbir şeyi senin kadar istemedim
         Gm
Ama yetmiyor ne kadar istesemde
     F          D#         D    
Gözlerindeki resmin gitmiyor
      Gm                 F
Yağmurlar içime içime içime yağıyor
              D#       D
İçimdeki kuraklık bitmiyor
Cm          F   D#                   D   
Bitmez sandığım yollar aynı çıkmazda tükeniyor
         Gm          F           D#          D     
Çünkü yoksun gelmiyorsun bir çığ gibi büyüyorsun

D---12-12-8h10-8~------10-10-10h12-10~--8-8-8h10-8~-      

Gm         
Aşk bu mu,aşk acı mı
F
Acıtır mı,incitir mi
D#                           D
Aşk bunu bana yapmaya mecbur mu?
Şarkının doğruluğunu nasıl değerlendiriyorsunuz?
48%
Daha önce 17 değerlendirme yapılmış


Bu sayfayı ziyaret edenler bu sayfalara da uğradı :