Yazdır
Seslendiren: Pentagram
Pentagram
Gönderen:

Time (Tab)

|-------------------------------------------------------------------------|
|------------------------------6-------8~-6-6-8---------------------------|
|-0--3--5--5/7--7~~-7--5-5--5-----3--------------6p5-3----0--3---7p5-5~~--| x 2 
|-------------------------------------------------------3-----------------|
|-------------------------------------------------------------------------|
|-------------------------------------------------------------------------|


|-------------------------------------------------------------------------|
|-------------------------------------------------------------------------|
|--3--3-3-0-3-5-5/7-5-5-5-7-2-3-0-----3-2-0-2-3-5-7-3-2-0-2---0-----------| 
|-----------------------------------3-----------------------3-------------| x 2
|-------------------------------------------------------------------------|
|-------------------------------------------------------------------------|
Şarkının doğruluğunu nasıl değerlendiriyorsunuz?
38%
Daha önce 27 değerlendirme yapılmış


Bu sayfayı ziyaret edenler bu sayfalara da uğradı :