Yazdır
Seslendiren: Pentagram
Pentagram
Gönderen:

Black Magic (Tab)

|-------------------------------------------------------------------------|
|-------------------------------------------------------------------------|
|-------------------------------------------------------------------------|
|--------------------------------------X4---------------------------------|
| -------7~-- ----7-8---7-8-10-8-5-8-7--------------------------------------|
|--0000----0000- ----0-----------------------------------------------------|
PM .... .... .
|-------------------------------------------------------------------------|
|-------------------------------------------------------------------------|
|-------------------------------------------------------------------------|
|-------9-----9/10-------9------5/7----X----------------------------------|
|-------7-----7/8--------7------3/5---------------------------------------|
|--0000---0000------0000---0000-------------------------------------------|
PM .... .... .... ....Verse 
|-------------------------------------------------------------------------|
|-------------------------------------------------------------------------|
|-------------------------------------------------------------------------|
|--9------9-9-10-9-------12-11-10-9------9-9-10-9-------------------------|
|--7------7-7-8--7-------10-9--8--7------7-7-8--7--------5-4-3-2----------|
|----0000----------0000-------------0000-----------0000--3-2-1-0----------|
PM .... .... .... ....
"spells surround me day and night striken by the force of....
|-------------------------------------------------------------------------|
|-------------------------------------------------------------------------|
|-------------------------------------------------------------------------|
|-------------------------------------------------------------------------|
|--4444-6666---1111--22222------------------------------------------------|
|-------------------------------------------------------------------------|
slight PM all over"fighting the curse...(see lyrics at end of tab)
|-------------------------------------------------------------------------|
|--------11-11--8---------------------------------------------------------|
|--------9--9---7----X4---------------------------------------------------|
|--------7--7---5---------------------------------------------------------|
|-7777--------------------------------------------------------------------|
|-------------------------------------------------------------------------|
PM....verse after first solo
|-------------------------------------------------------------------------|
|-------------------------------------------------------------------------|
|-------------------------------------------------------------------------|
|-------------------9-10-------------------9/10-10------------------------|
|-------------------7-8--------------------7/8--8-------------------------|
|-0-000-0-000-0-000------0-000-0-000-0-000--------------------------------|
PM. ... ... ... ... ... ...Outro
|-------------------------------------------------------------------------|
|-------------------------------------------------------------------------|
|-------------------------------------------------------------------------|
|--9-9-9-10-9-12~---------------------------------------------------------|
|--7-7-7-8--7-10~------------2--------------------------------------------|
|----------------------------0--------------------------------------------|
Şarkının doğruluğunu nasıl değerlendiriyorsunuz?
19%
Daha önce 36 değerlendirme yapılmış


Bu sayfayı ziyaret edenler bu sayfalara da uğradı :