Yazdır
Seslendiren: Pentagram
Pentagram
Gönderen:

Anatolia (Tab)

 ---------------------------------------------------------------------------
B ---------------------------------------------------------------------------
G ---------------------------------------------------------------------------
D ---------------------------------------------------------------------------
A ---2-1-2----------2-1---1-2-4------2-1-2-----------------------------------
E -0-------3-2----0-----3----------0-------3-2----0-3-2-0-2-3-0--------------

e ---------------------------------------------------------------------------
B ---------------------------------------------------------------------------
G ---------------------------------------------------------------------------
D ---------------------------------------------------------------------------
A ---2-1-2----------2-1---1-2-4------2-1-2-----------------------------------
E -0-------3-2----0-----3----------0-------3-2----0-3-2-0-2-3-0--------------

e ---------------------------------------------------------------------------
B ---------------------------------------------------------------------------
G ---------------------------------------------------------------------------
D ---------------------------------------------------------------------------
A ---2-1-2----------2-1---1-2-4------2-1-2--------------1-2-4-2^4^2-1-2-4----
E -0-------3-2----0-----3----------0-------3-2----0-2-3----------------------

e ---------------------------------------------------------------------------
B ---------------------------------------------------------------------------
G ---------------------------------------------------------------------------
D ---------------------------------------------------------------------------
A ---2-1-2----------2-1---1-2-4------2-1-2--------------1-2-4-2^4^2-1--------
E -0-------3-2----0-----3----------0-------3-2----0-2-3---------------3-2----

e -------------------------------------------------
B -------------------------------------------------
G -------------------------------------------------
D -----------------------------------------1-2-----
A -----------------1-2-----------------2-3---------
E -0-2-3-2-5-0-2-3---------0-2-3-2-5-0-------------

e -------------------------------------------------
B -------------------------------------------------
G -------------------------------------------------
D -----------------------------------------1-2-----
A -----------------1-2-----------------2-3---------
E -0-2-3-2-5-0-2-3---------0-2-3-2-5-0-------------

e ---------------------------------------------------------------------------
B ---------------------------------------------------------------------------
G ---------------------------------------------------------------------------
D --2--2-1-2--------2--2-1-2--------2--2-1-2--------2--2-1-2-----------------
A --0--------3------0---------------0--------3------0------------------------
E ---------------------------------------------------------------------------

e ---------------------------------------------------------------------------
B ---------------------------------------------------------------------------
G ---------------------------------------------------------------------------
D --2--2-1-2--------2--2-1-2--------2--2-1-2--------2--5-4-5-----------------
A --0--------3------0---------------0--------3------0------------------------
E ---------------------------------------------------------------------------
Klibi izlemek için tıklayın

MP3 indirmek için tıklayın

Şarkının doğruluğunu nasıl değerlendiriyorsunuz?
25%
Daha önce 55 değerlendirme yapılmış


Bu sayfayı ziyaret edenler bu sayfalara da uğradı :