Yazdır
Seslendiren: Kargo
Kargo
Gönderen:

Kaderin Dizaynı (Tab)

Riff1
e|---------------------------------------------|
b|---------------------------------------------|
g|-------------------------------6~~-----------| Tekrar
d|-------------------------------6~~-----------|
a|-----4-----------8~~---6h8-4~~-4~~-----------|
e|-4h6---4~~---4h6--------------------4h6-4~~--|

Riff2
e|---------------------------------------------|
b|---------------------------------------------|
g|---------------------------------------------|
d|---------------------------------------------|
a|-----4-----------8~~--9-11-11s13~~-13p11-11~-|
e|-4h6---4~~---4h6-----------------------------|

e|---------------------------------------------|
b|---------------------------------------------|
g|---------------------------------------------|
d|-------------------------10-11-11-10p8s6-----|
a|-9--8--8s9~~--9-11-11~~----------------------|
e|---------------------------------------------|

intro:  Riff1 x2

 Riff2
Karanliktan korkan bir kadin agaçli yolda yürüyor 
                                                       Riff1
Geçmisten çilgin bir hata yipranmis bir teselli aklinda...

Riff2
yasli,sakat bir tenisçi beton kortta duruyor 

soguk yüzü yansiyor elinde tuttugu kupaya... 

Eb            Bb       
  saatin sesi çalmakta 
Ab                Bb
  katedralin çanlari gibi  
Eb                    Bb
  yalnizlar simdi susmakta 
Ab           Bb       Riff1
  siirin müzigi gibi... 


Riff2
bitkin bir rakip mum isiginda verdigi vaazlar ardinda g

özyaslari damliyor elinde tutugu Kuran'a... 


Eb            Bb       
  saatin sesi çalmakta 
Ab                Bb
  katedralin çanlari gibi  
Eb                    Bb
  yalnizlar simdi susmakta 
Ab           Bb       Riff1
  siirin müzigi gibi... 

Fm      Cm    Ab   Bb
huuu...
Fm      Cm    Ab   Bb
huuu...


Eb                   Bb         
  pismanliktan kaçan bir yanilgi 
Db          Ab
  tarihin tozlu dosyasinda 
Eb                  Bb     
  zaman bir girdap gibi 
Db           Ab
  kaderin kör dizayninda... 

Eb     Bb     Ab    Bb
Eb     Bb     Ab    Bb


F              C       
  saatin sesi çalmakta 
Bb                 C
  Söhretin, hirsin aklinda
F                     C
  yalnizlar simdi susmakta 
Bb             C       
  inancin, umudun koynunda... 

Gm   Dm    Bb   C
huuu...
Gm   Dm    Bb   C
huuu...

Fm      Cm    Ab   Bb
Fm      Cm    Ab   Bb


Fm                    Cm               Ab        Bb
  küller topraga karisti inanmislarin rüzgarinda 
Fm                    Cm               Ab        Bb
  küller topraga karisti inanmislarin rüzgarinda 
Fm                  Cm             Ab      Bb
saflik bir anlam buldu iyilerin ruhunda... 
Fm                  Cm             Ab      Bb
saflik bir anlam buldu iyilerin ruhunda... 






Fm      Cm    Ab   Bb
Fm      Cm    Ab   Bb
Şarkının doğruluğunu nasıl değerlendiriyorsunuz?
20%
Daha önce 10 değerlendirme yapılmış


Bu sayfayı ziyaret edenler bu sayfalara da uğradı :