Yazdır
Seslendiren: Demet Sağıroğlu
Demet Sağıroğlu
Gönderen:

Papatya Falları - İntro (Tab)

e ----------------------------------------------------------
b ----14---12--11-12-14--12/9--------14---12--11-12-14------
g ----------------------------------------------------------

( 4 kez tekrar )

 ..... yine papatya verdi elime ......
e ----------------------------------------------------------
b ----12/14--12/11-11/9--11---------------------------------
g ----------------------------------------------------------

 ..... her zamanki gibi başladım .....
e ----------------------------------------------------------
b ----11--12--14--14--12--11/9------------------------------
g ----------------------------------------------------------

 ..... seviyor sevmiyor ..............
e ----------------------------------------------------------
b ----9/11--12--11/9--11------------------------------------
g ----------------------------------------------------------

 ..... seviyor çıkar .................
e ----------------------------------------------------------
b --12-12-12------------------------------------------------
g --12-12-12------------------------------------------------
Şarkının doğruluğunu nasıl değerlendiriyorsunuz?
32%
Daha önce 10 değerlendirme yapılmış


Bu sayfayı ziyaret edenler bu sayfalara da uğradı :