Yazdır
Seslendiren: Barış Manço
Barış Manço
Gönderen:

Yine Yol Göründü (Tab)

İntro

e ]---------------------------------------
b ]---------------------------------------
g ]--------------------------------9------
D ]--------------------------------9------
A ]---7---7---7-----7---7-7-7/9h11--------
E ]-0---0---0---7h9---0-------------------

e ]---------------------------------------
b ]---------------------------------------
g ]-9-------------------------------------
D ]---11-9---------9---------------7------
A ]--------11-9h11---11p9-7--7-7-7---10-7-
E ]---------------------------------------


      E	      B		E A E
Yine yol göründü gurbete
	A		  E
Güz geldi yapraklar döküldü
      A		
Martılar göç etti 
      E		
Turnalar süzüldü 
	      B		E A E
Yine yol göründü gurbete

     E	    B	     E A E
Köyüme karakış çöksede
     A		      E
Aşıklar boynunu büksede
     A		       E
Desemki nazlı yar insafa gelsede
	      B		E A E
Yine yol göründü gurbete


x2 (Nakarat)
    C#m	      G#m
Acı keder hep bana
	  C#m	   G#m
Kardeş, bacı, ana, baba
	F#	  A	      E A E
Benim olsa bütün dünya yetmezki.

      E	      B	       E A E 
Derdimi kimlere söyleyim
	A		E
Ben garip Barış'ım neyleyim
    A		      E
Anadan, babadan, yuvadan uzakta 
	       B	E A E
Yine yol göründü gurbete


x3 (Nakarat)

x2 İntro 

x3 (Nakarat)
Şarkının doğruluğunu nasıl değerlendiriyorsunuz?
26%
Daha önce 12 değerlendirme yapılmış


Bu sayfayı ziyaret edenler bu sayfalara da uğradı :