Yazdır
Seslendiren: Haluk Levent
Haluk Levent
Gönderen:

Dağlar (Tab)

e |--------------------------------------- ----------|
B |--------------------------------------------------|
G |------------------------------------------------ -|X4
D |--------------4-----2-----------------------------|
A |--------------------------5-4-5--------4-2--------|
E |-----2-5-2----------------------------------5---- |

F#m       Em        A  G  F#m
Dünyalara değişemem sandiğim
F#m       Em        A  G  F#m
Bahcelereden cicekleri caldigim    
Bm                 Em  G  F#m
Onun icin ateslere yandigim
Bm          A      G      F#m 
Bir zalimin ihanetine yandim

e|----------------------------------------------------|
B|----------------------------------------------------| 
G|------7-------6----4-6------4------4----------------|X2
D|-------------------------------7------------7---5-4-|
A|----------------------------------------------------|
E|----------------------------------------------------|

F#m    Em
Daglar daglar  
                    F#m G F#m
Geceleri benim icin kim aglar
Bm
Ben Bu gece olmessem
Em               
Olmem olmem hic bir vakit
A                   G                      
Dag gibi bir yigide kiydi gitti sanki vakit
Em
Ne demeli Su zalime 
Em           G
Kal Bu gece kal yada git 
Am          G      Em
Azrail'im Su canimi Al Bu gece 
G        F#m
Al yada git oyy

e|----------------------------------------------------|
B|----------------------------------------------------|
G|------------------------------------------------- --|X2
D|------------4---------2-----------------------------|
A|-----------------------------5-4-5-------4-2--------|
E|----2-5-2---------------------------------------5---|

e|-----------------------------------------------------|
B|-----------------------------------------------------|
G|------------------2----0----4----2-0------2----------|
D|------------------------------------------------4----|X2
A|--0--2---0-------------------------------------------|
E|-----------------------------------------------------|

e|-------------------------------------------------------|
B|-------------------------------------------------------|
G|----------------------------------------------------- -|
D|-----------------4---------2---------------------------|
A|----------------------------------5-4-5--------4-2-----|
E|-----2--5--2----------------------------------------5--|

F#m       Em        A  G  F#m
Guvendigim Su daglara kar yagdi
F#m       Em        A  G  F#m
Ayrilik pusuda kaldi gun saydi
Bm                 Em  G  F#m
Azrailim Su canimi alsaydi
Bm          A      G      F#m 
Bir zalimin ihanetine yandim 
Video sitemizden kaldırılmıştır.
Şarkının doğruluğunu nasıl değerlendiriyorsunuz?
32%
Daha önce 42 değerlendirme yapılmış


Bu sayfayı ziyaret edenler bu sayfalara da uğradı :