Yazdır
Seslendiren: Pentagram
Pentagram
Gönderen:

Thousand in The Eastland (Intro) (Tab)

-------------------------|---------------|
---8-7-8-10-8-7----------|---7---7---7-8-|
-7--------------8-7----7-|-7---8---8-----|
--------------------10---|---------------|
-------------------------|---------------|
-------------------------|---------------|

|----------------------------------------
|-10-8-7-8-10-8-7------------------------
|-----------------8-7----7---------------
|---------------------10-----------------
|----------------------------------------
|----------------------------------------

-------------------------|--------------------------
---7---7-8p7-------------|---7-8-7-------7----------
-7---8-------8p7----7----|-7-------8-7-8---8-7----7-
-----------------10---10-|---------------------10---
-------------------------|--------------------------
-------------------------|--------------------------

Play these 2 times.
Şarkının doğruluğunu nasıl değerlendiriyorsunuz?
17%
Daha önce 24 değerlendirme yapılmış


Bu sayfayı ziyaret edenler bu sayfalara da uğradı :