Yazdır
Seslendiren: Cahit Berkay
Cahit Berkay
Gönderen:

Devlerin Aşkı (Tab)

intro em-bm-em-bm-em-bm-em-bm

1.kısım

 EM             BM      EM             TEKRAR INTRO
e---0--2-3-2-0-------------------------------
b-3-------------2-3-2-0----------------------
g-----------------------0-2-0----------------
d-----------------------------4--2-0-2-------
a--------------------------------------------
e--------------------------------------------  tekrar1

2.kısım
EM                         D      EM
e-----------------------0-----2-0-0
b----------1-0---1-0------3-3------
g------0-2-----2-------------------
d--2-4-----------------------------
a----------------------------------
e----------------------------------



e-3-2-2/5-3-3-7-5-5-8-7-7-10-8-8-12-10-10-14-12-12
b-------------------------------------------------
g-------------------------------------------------
d-------------------------------------------------
a-------------------------------------------------
e-------------------------------------------------



e-0----2-0-0-0--0---3-2-0-3-2-----2-0---2-0
b--3-3--------------------------------3----
g------------------------------------------
d------------------------------------------
a------------------------------------------
e------------------------------------------ tekrar2



                                          en baştan
Şarkının doğruluğunu nasıl değerlendiriyorsunuz?
61%
Daha önce 100 değerlendirme yapılmış


Bu sayfayı ziyaret edenler bu sayfalara da uğradı :