Yazdır
Seslendiren: Hayko Cepkin
Hayko Cepkin
Gönderen:

Hangimiz Masumuz (Tab)

   Pm   pm pm   pm pm      pm pm   pm pm pm pm  pm
   Q    E  q    E  q       E  q    E  E  E  E   E
------------------------|---------------------------|
------------------------|---------------------------|
*-----------------------|---------------------------|
*-----------------------|---------------------------|
---3-------3-------3----|-----3----5--6--5--3--(2)--|
--------3-------3-------|--3------------------------|

  Pm   pm pm   pm pm      pm pm   pm pm   pm pm    pm   pm
Pm   pm pm
  Q    E  q    E  q       E  q    E  q    E  E     q    E
Q    E  q
-----------------------|------------------------|----------
-----------------------|------------------------|----------
-----------------------|------------------------|----------
-----------------------|------------------------|----------
--3-------3-------3----|-----3-------3-------3--|--3------3
-------3-------3-------|--3-------3-------3-----|3------3--

  Pm pm   pm pm pm pm  pm     pm   pm pm   pm pm
  E  q    E  E  E  E   E      q    E  q    E  q
---------------------------|-----------------------|
---------------------------|-----------------------|
---------------------------|-----------------------|
---------------------------|-----------------------|
-----3----5--6--5--3--(2)--|--3-------3-------3----|
--3------------------------|-------3-------3-------|

  Pm pm   pm pm   pm pm      pm pm   pm pm   pm pm
  E  q    E  q    E  E       E  q    E  q    E  E
-------------------------||------------------------|
-------------------------||------------------------|
------------------------*||------------------------|
------------------------*||------------------------|
-----3-------3-------3---||-----3-------3-------3--|
--3-------3-------3------||--3-------3-------3-----|

  Pm   pm pm   pm pm      pm pm   pm pm pm pm  pm
  Q    E  q    E  q       E  q    E  E  E  E   E
-----------------------|---------------------------|
-----------------------|---------------------------|
-----------------------|---------------------------|
-----------------------|---------------------------|
--3-------3-------3----|-----3----5--6--5--3--(2)--|
-------3-------3-------|--3------------------------|

  Pm   pm pm   pm pm      pm pm   pm pm   pm pm    pm   pm
Pm   pm pm
  Q    E  q    E  q       E  q    E  q    E  E     q    E
Q    E  q
-----------------------|------------------------|----------
-----------------------|------------------------|----------
-----------------------|------------------------|----------
-----------------------|------------------------|----------
--3-------3-------3----|-----3-------3-------3--|--3------3
-------3-------3-------|--3-------3-------3-----|3------3--

  Pm pm   pm pm pm pm  pm     pm   pm pm   pm pm
  E  q    E  E  E  E   E      q    E  q    E  q
---------------------------|-----------------------|
---------------------------|-----------------------|
---------------------------|-----------------------|
---------------------------|-----------------------|
-----3----5--6--5--3--(2)--|--3-------3-------3----|
--3------------------------|-------3-------3-------|

  Pm pm   pm pm   pm pm
  E  q    E  q    E  E     q    s s q    s s q
------------------------|-------------------------|
------------------------|-------------------------|
------------------------|--5----7-5-7----8-7-8----|
------------------------|-------------------------|
-----3-------3-------3--|-------------------------|
--3-------3-------3-----|-------------------------|

   S s  q     s  s  q     q        q    s s q    s s q
--------------------------------|-------------------------|
--------------------------------|-------------------------|
--10-8-10----12-
Şarkının doğruluğunu nasıl değerlendiriyorsunuz?
0%
Daha önce 0 değerlendirme yapılmış


Bu sayfayı ziyaret edenler bu sayfalara da uğradı :