Yazdır
Seslendiren: Feridun Düzağaç
Feridun Düzağaç
Gönderen:

Dipteyim Sondayım Depresyondayım (Tab)

E-------------11-13~~~-------------------------------
B----11-13-14---------13-13-13h14p13-14p13-13-11-----
G-10--------------------------------------------13~~-
D----------------------------------------------------

E---------------------------------------
B-----------------------------11~~--13~~
G-11p10-11--------10--11--13~~----------
D---------13--13------------------------

E-------------11-13~~------------------------------
B----11-13-14-------13-13-13h14p13-14p13-13-11-----
G-10------------------------------------------13~~-
D--------------------------------------------------

E-------------------------
B-------------------------
G-11p10-11---13--11-10~~--
D---------13--------------

Fm                    A#m
Kara duman çıktı raydan asılıdır eleğim
A#m                     Fm
Ben acıyı sende tattım yarımcadır yüreğim
Fm                      F#      Fm
Yağmurlarım yağmaz oldu düşlerim kurudu
Fm                  F#    Fm
Çatladı topraklarım ekinim soldu

A#m            Fm
Dipteyim sondayım depresyondayım
F#               Fm
Yalvarırım gel de kurtar
A#m          Fm
Beni tanımla cümleler içinde kullan
F#               Fm
Yepyeni anlamlara sal

Şarkının doğruluğunu nasıl değerlendiriyorsunuz?
26%
Daha önce 97 değerlendirme yapılmış


Bu sayfayı ziyaret edenler bu sayfalara da uğradı :