Yazdır
Seslendiren: Athena
Athena
Gönderen:

Palavra (solo) (Tab)

  e--------------------------------------5--5--------------
  B--5---7---8--8---7---5---7----7---8---------8---7---5---
  G-------------------------------------------------------- 
  D--------------------------------------------------------
  A--------------------------------------------------------
  E--------------------------------------------------------

  e--------------------------------------------------------
  B--5-5-5-5-5--7--8-8-8-8-8--8--7--5--7-7-7-7-7-----------
  G--------------------------------------------------------
  D--------------------------------------------------------
  A--------------------------------------------------------
  E--------------------------------------------------------
  
  e----------------5-5-5-5-5--5----------------------------
  B--7-7-7-7-7--8----------------8--7--5-------------------
  G--------------------------------------------------------
  D--------------------------------------------------------
  A--------------------------------------------------------
  E--------------------------------------------------------
Şarkının doğruluğunu nasıl değerlendiriyorsunuz?
71%
Daha önce 32 değerlendirme yapılmış


Bu sayfayı ziyaret edenler bu sayfalara da uğradı :