Yazdır
Seslendiren: Bülent Ortaçgil
Bülent Ortaçgil
Gönderen:

Çoktular Ama Yoktular (Tab)

Capo 4

Intro
|-3-----2-----1------0-----------------------------0-2--|
|---0-----0-----0--------------3------5----1-1---0------|
|-----------------------0----4---4--5------2-----2------|
|-2-----0----------------------------------2-----1------|
|--------------------3-------2------3------------2------|
|-------------3----------------------------2------------|

Gül, sen gülünce bahar
Renklerden pembe
Günlerden pazar
1
|-3-----2------0----------------------------|-----0--2--|
|---0-----0----------3------1----0----1-----|--3--------|
|----------------0-----0------0----0----0--.|-----------|
|-2-----0----------------------------------.|--------0--|
|--------------3-----2------0---------0-----|--2--3-----|
|--------------------------------3----------|-----------|

Şarkının doğruluğunu nasıl değerlendiriyorsunuz?
0%
Daha önce 0 değerlendirme yapılmış


Bu sayfayı ziyaret edenler bu sayfalara da uğradı :