Yazdır
Seslendiren: Hayko Cepkin
Hayko Cepkin
Gönderen:

Son Kez (Tab)

E---------------------------------------------------------
B-3-6-5-3-----1-3-1-3-1---8----3-6-5-3-2-----1-3-1-3-1----
G---------2-3-----------3----------------2-3------------3-
D---------------------------------------------------------
A---------------------------------------------------------
E---------------------------------------------------------

Son kez gölgemden gölgen koptu
Hem de çok derinden dertliyim
Sesin yok tenin yok                    çalmaya devam
Sessizlik son kez

Tüm o sevgilerimi geri ver bırak
Yoruldum çok yolun açık olsun
Kimse geri dönmez

E---------------------------------------------------------
B-3-6-5-3-----1-3-1-3-1---8---3-6-5-3-2-----1-3-1-3-1-----
G---------2-3-----------3---------------2-3------------3--
D---------------------------------------------------------
A---------------------------------------------------------
E---------------------------------------------------------

Dm-C-a7-Bb

Dm         C    A7            Bb
Herşey biter  sen de kaldın bir yalnız
Dm         C  Bb                        Dm
Herşey gider yeter ki sen  zamanın ver

Dm         C        A7             Bb
Herşey biter sen de kaldın bir yalnız
Dm         C  Bb                       Dm
Herşey gider yeter ki sen zamanın ver

Klibi izlemek için tıklayın

Şarkının doğruluğunu nasıl değerlendiriyorsunuz?
10%
Daha önce 1 değerlendirme yapılmış


Bu sayfayı ziyaret edenler bu sayfalara da uğradı :