Yazdır
Seslendiren: Feridun Düzağaç
Feridun Düzağaç
Gönderen:

Dipteyim Sondayım Depresyondayım (Tab)

intro:

e------2-----0h2--------2--------0h2-----0h2-|
B---0-----0-------0--0-----0--0-------0------|
G--------------------------------------------|
D--------------------------------------------|
A--------------------------------------------|
E--------------------------------------------|

e----2-----0h2--------2--------0h2-----2-----|
B-0-----0-------0--0-----0--0-------0-----0--|
G--------------------------------------------|
D--------------------------------------------|
A--------------------------------------------|
E--------------------------------------------|


solo:
            B5
e----------------------------|
B----------------------------|
G----------------7--9--9s11--|
D------9--11-----------------|
A---9---------9--------------|
E----------------------------|

            F5
e--------------------------------------------|
B--------------------------------------------|
G---6--6--6h7p6------------------------------|
D----------------9--11--12--11--9h11--9--7---|
A--------------------------------------------|
E--------------------------------------------|

      G5           E5 (riff-1)     F5# (riff2)
e---------------|--------------|----------------|
B---------------|--------------|----------------|
G---------------|--------------|----------------|
D---5--4--5--5--|--------4--5--|--7--9--11--9---|
A---------------|--7--7--------|----------------|
E---------------|--------------|----------------|

      B5
e----------------------------|
B----------------------------|
G----------------7--9--9s11--|
D------9--11-----------------|
A---9---------9--------------|
E----------------------------|

      A                             F5# 
e---------------------------|-------------------|
B---------------------------|-------------------|
G---6--6--6h7p6-------------|-------------------|
D----------------9--11--12--|--11--9h11--9--7---|
A---------------------------|-------------------|
E---------------------------|-------------------|

	G5	   E5 (riff-1)		F5#
e---------------|--------------|----------------|
B---------------|--------------|----------------|
G---------------|--------------|----------------|
D---5--4--5--5--|--------7--5--|--4-------------|
A---------------|--7--7--------|----------------|
E---------------|--------------|----------------|


riff-1:           riff-2:             riff-3:
e-----------|   e--------------|  e-----------------------|
B-----------|   B--------------|  B-----------------------|
G-----------|   G--------------|  G-----------------------|
D-----------|   D--------------|  D-----------------------|
A-----0-----|   A--------0--2--|  A--------0--2--0--4--2--|
E--0-----0--|   E--2--3--------|  E--2--3-----------------|


F5#			E5
Kara duman çıktı raydan asılıdır eleğim

B5			F5#
Ben acıyı sende tattım yarımcadır yüreğim


F5#			E5
Yağmurlarım yağmaz oldu düşlerim kurudu

F5#		    G5	
Çatladı topraklarım ekinim 

F5#
soldu...


B5		F5#
Dipteyim sondayım depresyondayım

G5	   E5 		F5# (riff-3)
Yalvarırım gel de kurtar

B5	     A5		   F5#
Beni tanımla cümleler içinde kullan

G5	E5	   F5#
Yepyeni anlamlara sal

Şarkının doğruluğunu nasıl değerlendiriyorsunuz?
68%
Daha önce 19 değerlendirme yapılmış


Bu sayfayı ziyaret edenler bu sayfalara da uğradı :