Yazdır
Seslendiren: Pentagram
Pentagram
Gönderen:

Bloody Guillotine (Tab)

Riff A
|-------------------------------------------
|-------------------------------------------
|--3--------3--------3--------3--------3--3-
|--3--------3--------3--------3--------3--3-
|--1--------1--------1--------1--------1--1-
|-----0--0-----0--0-----0--0-----0--0-------

Riff B
|----------------------------------------------|
|----------------------------------------------|
|--3--------3--------3-------------------------|
|--3--------3--------3--3--4--5--4--3----------|
|--1--------1--------1-----------------5--4--3-|
|-----0--0-----0--0----------------------------|

Riff C
|-------------------------------------------------|
|-------------------------------------------------|
|-------------------------------------------------|
|-----5--4--3-----5--4--3-----5--4--3-------------|
|--0-----------0-----------0-----------5--5--4--4-|
|-------------------------------------------------|

Bridge
|------------------------------|
|------------------------------|
|------------------------------|
|-----5-----5-----5/7-----7----|
|-----3-----3-----3/5-----5----|
|------------------------------|

Riff D  (biraz hatalı olabilir)
|-------------------------------------------------|
|-------------------------------------------------|
|--------------------------3-----2----------------|
|-----5--4--3-----5--4--0-----0-----0-----3--4--5-|
|--0-----------0-----------------------0----------|
|-------------------------------------------------|


Riff A
Riff B
Riff A

Riff E

|---------------------------------------------------------|
|---------------------------------------------------------|
|--3--------3--------3------------------------------------|
|--3--------3--------3------------------------------------|
|--1--------1--------1--0--0--0--1--1--1--0--0--0--1--1--1|
|-----0--0-----0--0---------------------------------------|
    

Riff A


Riff F
|-----------------------------------|
|-----------------------------------|
|-----------------------------7--6--|
|--7--7--8--8--7--7--8--8--7--7--6--|
|--7--7--8--8--7--7--8--8--7--5--4--|
|--5--5--6--6--5--5--6--6--5--------|


Riff G
|-----------------------------------|
|-----------------------------------|
|-----------------------------7--8--|
|--7--7--8--8--7--7--8--8--7--7--8--|
|--7--7--8--8--7--7--8--8--7--5--6--|
|--5--5--6--6--5--5--6--6--5--------|

böyle devam ettikten sonra solo giriyor vs... 
lütfen hatalarımı söyleyin.
pentagram tabları için beni arayabilirsiniz 
Şarkının doğruluğunu nasıl değerlendiriyorsunuz?
25%
Daha önce 5 değerlendirme yapılmış


Bu sayfayı ziyaret edenler bu sayfalara da uğradı :