Yazdır
Seslendiren: Duman
Duman
Gönderen:

Yalnızlık Paylaşılmaz (Tab)

Duman - yalnızlık paylasılmaz

   Bm             G              Bm              G

E|---------------|--------------|---------------|-----------------|
B|-------2---2---|---3-3--------|-------2---2---|---3-3-5-3-------|
G|---4-4---4-----|---4---6-4----|---4-4---4-----|---4-------6-4---|
D|-4-4-----------|---5----------|-4-4-----------|---5-------------|
A|-2-2-----------|-5-5----------|-2-2-----------|-5-5-------------|
E|---------------|-3-3----------|---------------|-3-3-------------|

   Bm             G              A               F#

E|---------------|--------------|---------------|-----------------|
B|-------2---2---|---3-3--------|---5-5---------|-----------------|
G|---4-4---4-----|---4---6-4----|---6---7-6-----|---3-3-4-3-------|
D|-4-4-----------|---5----------|---7-------8---|---4-----4-------|
A|-2-2-----------|-5-5----------|-7-7-----------|-4-4-----4-------|
E|---------------|-3-3----------|-5-5-----------|-2-2-----2-------|

Bm      G
Uzak dur yakinima
Bm      G
Bu mesafe beni bozar
Bm      G
Kimseler yanasmasin
A          F#
Yalnizlik paylasilmaz

Bm      G
Inceden hatirlarim
Bm      G
O eski dostluklari
Bm          G
Simdi herkes ayri uçta
A          F#
Kaderini inkar eder

Bm      G
Kimi yerer kimi över
Bm      G
Her biri ilgi bekler
Bm        G
Aman abim ulasilmaz
A        F#
Yalnizlik paylasilmaz
A        F#
Herkesle kaynasilmaz

Bm     A            F#    G         Bm
Hiç mi yalniz kalmadin su garip dünyada   )
 A               G                        )
Ah o zaman anlarsin                       )
      F#          G                       )   nakarat
Yalnizlik paylasilmaz        )x3          )
      F#          G     Bm                )
Yalnizlik paylasilmaz                     )

Bir sarap bir sigara
Sonbahar koynumda
Yanlizligi kokluyorum
Kurutulmus yapraklarda
Yagmur yemis topraklarda

Sen hiç mi yanliz kalmadin
Su fani dünyada
Ah o zaman anlarsin
Yanlizlik paylasilmaz

Şarkının doğruluğunu nasıl değerlendiriyorsunuz?
100%
Daha önce 1 değerlendirme yapılmış


Bu sayfayı ziyaret edenler bu sayfalara da uğradı :