Yazdır
Seslendiren: Pentagram
Pentagram
Gönderen:

Thousand In The Eastland (2. solo) (Tab)

|-------------------------------------------|
|-----10--8--10------8------8--10-----------|
|--7-------------10-----10---------10--8--7-|
|-------------------------------------------|
|-------------------------------------------|
|-------------------------------------------|


|-----------------------------------|
|----10--8--10------8------8--10--8-|
|-7-------------10-----10-----------|
|-----------------------------------|
|-----------------------------------|
|-----------------------------------|




|--------------------------------------------|
|-----10--8--10------8------8--10------------|
|--7-------------10-----10----------10--8--7-|
|--------------------------------------------|
|--------------------------------------------|
|--------------------------------------------|


|-----------------------------------|
|-----------------------------------|
|--7--10--9--10--9--7-------------7-|
|----------------------10--9--10----|
|-----------------------------------|
|-----------------------------------|
Şarkının doğruluğunu nasıl değerlendiriyorsunuz?
56%
Daha önce 22 değerlendirme yapılmış


Bu sayfayı ziyaret edenler bu sayfalara da uğradı :