Yazdır
Seslendiren: Duman
Duman
Gönderen:

Yanı Başındayım (Tab)

                Sevemedim    ben
E||-----------------------|-------------------|
B||-----------------------|-------------------|
G||-----------------------|-------------------|
D||--------------------0--|--1----------------|
A||-----------------1-----|--3----------------|
E||--------------3--------|-------------------|
 Bugünü                  sevemedim
-----------------------|-------------------|
-----------------------|-------------------|
-----------------------|-------------------|
--------------------0--|--1----------------|
--1--------L-----1-----|--3----------------|
--------------3--------|-------------------|
  Başından             göremedim
-----------------------|-------------------|
-----------------------|-------------------|
-----------------------|-------------------|
--------------------0--|--1----------------|
--1--------L-----1-----|--3----------------|
--------------3--------|-------------------|
  Geçtiğini                yanıbaşımdan
------------------------|-------------------|
------------------------|-------------------|
------------------------|-------------------|
------------------------|-------------------|
--1---------L-----1-----|-------------------|
---------------3-----3--|--1----------------|
                          Her
-----------------------|-------------------|
-----------------------|-------------------|
-----------------------|-------------------|
--1--------L--1--0-----|-------------------|
--3--------L--------3--|--0----------------|
-----------------------|--1----------------|
  Yanımdan                gelemdim
  Cm
-----------------------|-------------------|
-----------------------|-------------------|
--5--------L-----------|-------------------|
--5--------L--------0--|--1----------------|
--3--------L-----1-----|--3----------------|
--------------3--------|-------------------|
  Benoyuna                gelemdim
-----------------------|-------------------|
-----------------------|-------------------|
-----------------------|-------------------|
--------------------0--|--1----------------|
--1--------L-----1-----|--3----------------|
--------------3--------|-------------------|
  Yaşımdan                kovaladım
-----------------------|-------------------|
-----------------------|-------------------|
-----------------------|-------------------|
--------------------0--|--1----------------|
--1--------L-----1-----|--3----------------|
--------------3--------|-------------------|
  Sevdiğimi                yanıbaşımdan
------------------------|-------------------|
------------------------|-------------------|
------------------------|-------------------|
------------------------|-------------------|
--1---------L-----1-----|-------------------|
---------------3-----3--|--1----------------|
                          Her
-----------------------|-------------------|
-----------------------|-------------------|
-----------------------|-------------------|
--1--------L--1--0-----|-------------------|
--3--------L--------3--|--0----------------|
-----------------------|--1----------------|
  Yanımdan                yanıbaşımdan
-----------------------|-------------------|
-----------------------|-------------------|
--------------0--------|-------------------|
--1--------L-----1-----|-------------------|
--3--------L--------3--|--0----------------|
-----------------------|--1----------------|
                          Heryanımdan
-----------------------|-------------------|
-----------------------|-------------------|
--------------0--------|-------------------|
--1--------L-----1-----|-------------------|
--3--------L--------3--|--0----------------|
------------
Şarkının doğruluğunu nasıl değerlendiriyorsunuz?
51%
Daha önce 4 değerlendirme yapılmış


Bu sayfayı ziyaret edenler bu sayfalara da uğradı :