Yazdır
Seslendiren: Feridun Düzağaç
Feridun Düzağaç
Gönderen:

Beni Bırakma (Tab)

     Gb
E||---------------|------------------|
B||---------------|------------------|
G||------------3--|--------------3---|
D||-----4s--6---6-|-------4s--6-----6|
A||---4-----------|----4-------------|
E||-2-------------|-2----------------|


  Gb       G           Abm
--2--------3--------|--4-------------|
--2--------3--------|--4-------------|
--3--------4--------|--4-------------|
--4--------5--------|--6-------------|
--4--------5--------|--6-------------|
--2--------3--------|--4-------------|
                          Belki  güneş

  Bbm     Abm      Bbm
----------------|--------------------|
----------------|--6-----------------|
--6-------4-----|--6-----------------|
--8-------6-----|--8------------8----|
--8-------6-----|--8--------8------8-|
----------------|--6----6------------|
Bigün    ikimiz  için doğar

                       Abm
--------------------|--4-----------|
--------------------|--4-----------|
--6-----------------|--4-----------|
-----------8--------|--6-----------|
------8---------8---|--6-----------|
--------------------|--4-----------|
                       Belki korkuları

  Bbm     Abm        Bbm
-----------------|---------------------|
-----------------|--6------------------|
--6-------4------|--6------------------|
--8-------6------|--8------------8-----|
--8-------6------|--8---------8-----8--|
-----------------|--6------6-----------|
  Hayallerimiz       boğar

                          Abm
-----------------------|--4-----------|
-----------------------|--4-----------|
--6--------------------|--4-----------|
------------8----------|--6-----------|
-------8---------8-----|--6-----------|
-----------------------|--4-----------|
                            O    masal

  Bbm       Abm       B
-------------------|-------------------|
-------------------|-------------------|
--6---------4------|--8-------------8--|
--8---------6------|--9----------9-----|
--8---------6------|--9-------9--------|
-------------------|--7----7-----------|
 Günü     gelinceye  kadar

   Db     B        Bb
----------------|------------------------|
----------------|--6---------------------|
--10------8-----|--7------------------7--|
--11------9-----|--8---------------8-----|
--11------9-----|--8------------8--------|
---9------7-----|--6------6--------------|
               Susuyorum
                       Bb
------------------|----------------------|
--9--------7------|--6-------------------|
------------------|--7----7--------------|
------------------|--8---------8---------|
------------------|--8--------------8----|
------------------|--6-------------------|
                     Susuyorum

-------------------||
-------------------||
-------------------||
-------------------||
-------------------||
--6----------------||

Abm          Bbm - Abm       Bbm
  Belki güneş bigün ikimiz için doğar
Abm          Bbm - Abm       Bbm
  Belki korkuları hayallerimiz boğar
Abm          Bbm - Abm     B   Db-B
  O masal günü gelinceye kadar
Bb    Db - B       Bb
Susuyorum   susuyorum

Ebm                 Bbm
Susadıkça yüzün düşer aklıma
B                    Bbm-Bb
Korkar oldum düşlemekten
Ebm              Bbm
Adını anarım, çoğalır sesim
B                     Bbm
Konuşmaktan, düşünmekten, özlemekten

Ebm                      Bbm        ]
Gel bak bir elimde gökyüzü var hala ]
Ebm                          Bbm    ]
Ötekinde kayıp giden yıldızlar la la]nx2
Ebm                      Bbm-B      ]
Korkular da benim, umutlarda        ]
         Bbm    B     Bbm   B       ]
Beni bırakma  beni bırakma          ]

Abm          Bbm - Abm       Bbm
Kimse kimsenin herşeyi olamazmış
Abm    
Şarkının doğruluğunu nasıl değerlendiriyorsunuz?
45%
Daha önce 2 değerlendirme yapılmış


Bu sayfayı ziyaret edenler bu sayfalara da uğradı :