Ben

Yazdır
Seslendiren: Barış Akarsu
Barış Akarsu
Gönderen:

Ben (Tab)

Cm
  Hep birşeyler içinde
  G#
  Kaybolduk sessizce
  Fm
  Tükendi umutlar
  Cm         G
  Yaşanmadan gizlice

  Cm
  Bir zehir sardı bedeni
  G#
  Öldürmeyen süründüren
  Fm
  Razıyım artık yeter
  Cm      G
  Ne olur kurtar beni

  C5                        )
  Kayboldum tenimden        )
  G#5                       )
  Ne gelirki elimden        )x2
  F5                        )
  Fırlattım tüm yalanları   )
  C5          G5            )
  Çırılçıplak kaldım birden )

E||-----------------------|----------------------|
B||-----------------------|----------------------|
G||-----------------------|-------5--7--5--8--7--|
D||--------5--6p-5----5~--|--l-------------------|
A||----------------8------|----------------------|
E||-----------------------|----------------------|

----------------------------|--------------------|
-----------------8--9-------|--------------------|
--10B-----l------------10~--|---l----------------|
----------------------------|--------------------|
----------------------------|--------------------|
----------------------------|--------------------|

---------------------------|-------------------------|
---------------------------|-------------------------|
---L-----------------------|----------5--7--5--8--7--|
------------5--6P-5----5~--|--l----5-----------------|
--------------------8------|-------------------------|
---------------------------|-------------------------|

-----------------------|-----------------------|
-----------------------|-----------------------|
--8Br------l--------l--|--8br----7~------------|
-----------------------|-----------------------|
-----------------------|-----------------------|
-----------------------|-----------------------|

--------------------------|--------------------------|
--------------------------|--------------------------|
--L-----------------------|--------------7--5--8--7--|
-----------5--6P-5----5~--|--l------/10--------------|
-------------------8------|--------------------------|
--------------------------|--------------------------|


-----------------------------|
---------------8--9-------8--|
--10B-----l----------10~-----|
-----------------------------|
-----------------------------|
-----------------------------|


-------------------------------|-------------------|
-------------------------------|-------------------|
-10B--l-8-----10------10b--8b~-|-l-----------------|
----------10------10-----------|-----5--6P-5----5~-|
-------------------------------|-------------8-----|
-------------------------------|-------------------|


--------------------------|------------------------|
--------------------------|---------8--9-----------|
-----------5--7--5--8--7--|--10B----------10b---l--|
--6--5--8-----------------|------------------------|
--------------------------|------------------------|
--------------------------|------------------------|

---------------------------------|----------------||
---------------------------------|----------------||
--10B----10b----10b----10b---l-8-|----------------||
---------------------------------|--10------------||
---------------------------------|----------------||
---------------------------------|----------------||

Şarkının doğruluğunu nasıl değerlendiriyorsunuz?
60%
Daha önce 5 değerlendirme yapılmış


Bu sayfayı ziyaret edenler bu sayfalara da uğradı :