Yazdır
Seslendiren: Barış Akarsu
Barış Akarsu
Gönderen:

Senin Oldugun Yerde (Tab)

E||------15-------|-----15------|-----15-------|
B||-13--------13--|-12------12--|-13-------13b-|
G||---------------|-------------|--------------|
D||---------------|-------------|--------------|
A||---------------|-------------|--------------|
E||---------------|-------------|--------------|

------------------|------15------|------15----|
--------12--------|--13------13--|--12-----12-|
------------12----|--------------|------------|
------------------|--------------|------------|
------------------|--------------|------------|
------------------|--------------|------------|

----------15------13----|--12----------------|
--13--------------------|--------------------|
------------------------|--------------------|
------------------------|--------------------|
------------------------|--------------------|
------------------------|--------------------|

  C         G         Am         F

Tadı var hala teninin dudaklarımda
  C         G           Am         F
Ne güzeldi yüzün bir resim gibi aklımda
  C         G          Am         F
Gençlik özgürlük kaybolmuştu bir rüya
  C         G          Am         F
Uçsuz bucaksız bir dünyada sen ve ben

  C         G          Am         F
Senin olduğun her yer cennettir bana
  C         G          Am         F
Senin olduğun her yer cennettir bana
G              C        F
Belki bir gün anlarsın bunu
G              C        F
Belki bir gün anlarsın bunu

Bambaşkaymış kuralları oyun
Güller kokmuyor sadece nefes alıyorum
Bak nasılda parçalandık bitti rüya
Ölmüş bu yürek hissetmiyor senden sonra

Senin olduğun her yer cennettir bana
Senin olduğun her yer cennettir bana
Belki bir gün anlarsın bunu
Belki bir gün anlarsın bunu

Şarkının doğruluğunu nasıl değerlendiriyorsunuz?
0%
Daha önce 0 değerlendirme yapılmış


Bu sayfayı ziyaret edenler bu sayfalara da uğradı :